PrimaNota.ru - самый крупный в мире бесплатный архив песенных текстов, аккордов, табулатур и нот


Shamans Harvest - The End Of Me - таба, видео

Регистрация Запомнить меня
Войти через:  Facebook Google Twitter Vk Yandex Mail.ru

Shamans Harvest - The End Of Me - таба, видео

Печатать
Просмотров: 131
-------------------------------------------------------------------------------
                             "The End of Me" - Shaman's Harvest
-------------------------------------------------------------------------------
Tabbed by: GodleyAnchor
E-mail: godleyanchor@gmail.com


// This is my best guess and it sounds right enough to play and sing acoustic. ENJOY!
// NOTE: The measure lines simply segregate the parts, not exactly true measures.
 

Tuning: Drop B (B-F#-B-E-G#-C#)

Part A:                                                          *                  *
C#|-------------------|----------------------|--------------------------|-------------------------|
G#|-------------------|----------------------|-------------3------------|-------------------------|
E |-------------------|----------------------|---3--0^2-3--2--------2---|-------------------------|  
B |-------0^3-/5~-----|------0^3\2^0------0--|---5---------5---3--3---3-|--5-^7--3-5~--0----------|
F#|---0^3------3~-----|---0^3---------0^3----|-----------------1--------|--3--3--3-3~--0----------|
B |-0-----------------|-0--------------------|--------------------------|-------------------------|
                                                           
Part B:                                                      
C#|------------||--------------------------------------------------|
G#|--(3)-(3)---||--------3-----------3-----------3-----------3-----|
E |--(2)-(5)---||------2---2-------2---2-------5---5-------5---5---| 
B |--(3)-(5)---||----3-------3---3-------3---5-------5---5-------5-|
F#|--(1)-(3)---||--1-----------1-----------3-----------3-----------|
B |------------||--------------------------------------------------|
   (Hold these)

Part C:
C#|------------------------------|
G#|--3-3333-3-3333-3-3333-3-3333-|
E |--2-2222-2-2222-2-2222-2-2222-| 
B |--0-0000-0-0000-0-0000-0-0000-|  
F#|--0-0000-0-0000-0-0000-0-0000-|
B |------------------------------|

Part D:
C#|:---------------------------------------------------------:|
G#|:-3-3333-3-3333-3-3333-3-3333-3-3333-3-3333-3-3333-3-3333-:|
E |:-2-2222-2-2222-2-2222-2-2222-2-2222-2-2222-2-2222-2-2222-:| 
B |:-0-0000-0-0000-2-2222-2-2222-3-3333-3-3333-x-xxxx-x-xxxx-:|
F#|:-0-0000-0-0000-----------------------------1-1111-0-0000-:|
B |:---------------------------------------------------------:|

Continued:
C#|----------------------------------------------------------|
G#|-3-3333-3-3333-3-3333-3-3333-3-3333-3-3333-3*-3333-3-3333-|
E |-2-2222-2-2222-2-2222-2-2222-2-2222-2-2222-2*-2222-2-2222-|    
B |-x-xxxx-x-xxxx-x-xxxx-x-xxxx-x-xxxx-x-xxxx-x*-xxxx-x-xxxx-|
F#|-1-1111-1-1111-1-1111-1-1111-3-3333-3-3333-3*-3333-3-3333-|
B |----------------------------------------------------------|
* Stop here the second time through

Part E:
C#|-------------------------------||
G#|-------------------------------||
E |-------------------------------|| 
B |---10----3-----5-^7--3-5~---0--||
F#|---8-----1-----3--3--3-3~---0--||
B |-------------------------------||

Structure:   || A(3x) | B | A(3x) | B(2x) | C | D(2x) | E ||


************************************

| /   slide up
| \   slide down
| ^   hammer-on     // When handwriting, I tend to use the same symbol for both;
| ^   pull-off      // If the next note is higher - ; if next is lower - ;
| ~   vibrato
| <>  harmonic
| x   Mute note
| *   Staccato 
| :|  Repeat line

************************************
Добавлено: 10.11.2015
Другие материалы по этой песне:
  • Аккорды и текст

Страница создана 10.11.2015
http://primanota.ru/shamans-harvest/end-of-me-chords.htm
Привет, Гость.
Предлагаем пройти революционный курс по гитаре.
Подарок от PrimaNota.Ru, забирай!