PrimaNota.ru - самый крупный в мире бесплатный архив песенных текстов, аккордов, табулатур и нот


Shaman - For Tomorrow - текст песни, таба, видео

Регистрация Запомнить меня
Войти через:  Facebook Google Twitter Vk Yandex Mail.ru

Shaman - For Tomorrow - текст песни, таба, видео

Печатать
Просмотров: 78
		   Date: 07/06/2002

Intro:

Acoustic Guitar:
                                         Dm   C
e---1---1-0------1---1---0---1---1-0-----1-1-0-0-----------
B-3---3-----1--3---3---1---3---3-----1---3-3-1-1-----------
G----------------------------------------2-2-0-0-----------
D----------------------------------------0-0-2-2-----------
A--------------------------------------------3-3-----------
E----------------------------------------------------------

Flute Solo: Dm, C, Dm, C B - 4 times and ends in Dm

Dm (0:32)

Verse: (0:39)
Dm,C,B
passage: B,A,Gm
Gm,Dm,C,B  (1:05)
Gm,Dm,C,A (1:11)


Now enters the guitar, but we have a little problem,=20
the guitar is tuned to D, not to E I transcripted=20
in E tune, playing thus will lose some weight, but i think
this will make not much difference.

Riff 1 (1:20)
e----------------------------------------------------------
B----------------------------------------------------------
G-2-2-2-2-2-2-2--5/7\5--2-2-2-2-2-2-2--5/7\5---------------
D-0-0-0-0-0-0-0--3/5\3--0-0-0-0-0-0-0--3/5\3-A.H.----------
A---------------------------------------------5~-----------
E----------------------------------------------------------

Bridge (1:59)
e------------------------------------------------------------------------= --
B------------------------------------------------------------------------= --
G--------------------------------5-5-9-9-5-5-9-5--9-10-9-7-9-7-7p9p7-5p7p= 5-
D-5-5-8-8-5-5-8-5-3-3-7-7-3-3-7-3----------------------------------------= --
A------------------------------------------------------------------------= --
E------------------------------------------------------------------------= --

e------------------------------------------------------------------------= --
B------------------------------------------------------------------------= --
G------------------------------------------------------------------------= --
D-7-5-7------------------------------------------------------------------= --
A------------------------------------------------------------------------= --
E------------------------------------------------------------------------= --

Chorus: (2:12)
e----------------------------------------------------------
B-----6------------------------------------6-8--8-8--------
G-3-5-5-7--3-5-7-7-----7-7-------------3-5-5-7--7-7--3-5---
D-3-5-3-7--3-5-7-7-----7-7------3-5-7--3-5-3-5--5-5--3-5---
A-1-3---5--1-3-5-5-5-5-----5-5---------1-3---5-5-----1-3---
E----------------------------------------------------------


Flute solo 2: (2:35)

We have a lead guitar following the flute:

e--5-5---3-3---5-5---3--3----5-5---3-3---5-5---3--6-5-3----
B-3-3-3-1-1-1-3-3-3-1-1-----3-3-3-1-1-1-3-3-3-1-1--------6-
G----------------------3-3-----------------------3---------
D----------------------------------------------------------
A----------------------------------------------------------
E----------------------------------------------------------

Riff 1b (2:48)
It=B4s the same riff, but now it=B4s in E tune:
e----------------------------------------------------------
B----------------------------------------------------------
G----------------------------------------------------------
D----------------------------------------------------------
A-2-2-2-2-2-2-2--5/7\5--2-2-2-2-2-2-2--5/7\5---------------
E-0-0-0-0-0-0-0--3/5\3--0-0-0-0-0-0-0--3/5\3---------------

And 4 times later it turns to Riff 1 (3:01)
Bridge (3:14)
Chorus (3:27)

Riff2: (3:48)
e------------------------------------------------------------------------= --
B------8~\--------------------14\11/18-----------------------------------= --
G-10--------8---8~\--------6---------------------------------------------= --
D-10--------8---------8----6---------------------------------------------= --
A-8---------6---------8----4---------------------------------------------= --
E---------------------6--------------------------------------------------= --

e------------------------------------------------------------------------= --
B------------------------------------------------------------------------= --
G---------------------------------------------------------------------6--= --
D-10-10--10-10--10-10--10-10--8-8--8-8--8-8--8-8----------------------6--= --
A-8--8---8--8---8--8---8--8---6-6--6-6--6-6--6-6--8-8--8-8--8-8--8-8--4--= --
E-------------------------------------------------6-6--6-6--6-6--6-6-----= --

e------------------------------------------------------------------------= --
B-9-8--------------------------------------------------------------------= --
G------------------------------------------------------------------------= --
D------------------------------------------------------------------------= --
A------------------------------------------------------------------------= --
E------------------------------------------------------------------------= --

Guitar Solo: (4:16)
e--------------------------------------------------18bh-18bh--20^-20~----= --
B-12~^~--13~^~--12~^~--13~^~-15bf-17-18-17-15~15bh~---------------20~-20/= 15
G------------------------------------------------------------------------= --
D------------------------------------------------------------------------= --
A------------------------------------------------------------------------= --
E------------------------------------------------------------------------= --
(4:32)=20
e-18bh-18bh18--------18bh-17-19bh-22bh-22bh-20-19-17-19-19-15-17-12~-----= --
B------------15-15-15------------------------------------------------13~-= --
G------------------------------------------------------------------------= --
D------------------------------------------------------------------------= --
A------------------------------------------------------------------------= --
E------------------------------------------------------------------------= --
(4:45)                                                          =20
e------------------------------------------------------------------------= --
B------------------------------------------------------------------------= --
G-14p16p14-12-14-12----12-14-------------------------12-12-12/14\12------= --
D-------------------14-------14p15p14-12-14-12----14---------------------= --
A----------------------------------------------15------------------------= --
E------------------------------------------------------------------------= --
(4:48)=20
e------------------------------------------------------------------------= --
B------------------------------------------------------------------------= --
G------------------------------------------------------------------------= --
D--15-14-15-15bh15-------------------------------------------------------= --
A-----------------15---12-12/15\14---------------------------------------= --
E--------------------15--------------------------------------------------= --
(4:52)=20
e-12p13p12--------------------13----13-13-12-----------------------------= --
B---------15-13-12---13bh13bh---15----------15-13--15-13-----------------= --
G------------------14-------------14-------------14------14--------------= --
D---------------------------------------------------------12-12-12/14-14/= 15
A----------------------------------------------------------15------------= --
E------------------------------------------------------------------------= --

Rhythm Guitars of the Solo Part: (4:16)
e------------------------------------------------------------------------= --
B------------------------------------------------------------------------= --
G-----2------------------------------------------------------------------= --
D-3---2---3---5--------3------3------3------3----------------------------= --
A-3---0---3---5--------3------3------3------3----------------------------= --
E-1-------1---3---1-1-1--1-1-1--1-1-1--1-1-1-----------------------------= --
(4:29)=20
e----------------------------------7-8-8-5-------------------------------= --
B------5/7\5-----5/7\5------5/7------------------------------------------= --
G------4/6\4-----4/6\4------4/6------------------------------------------= 8-
D------------------------------------------------3------3------3------3--= 7-
A-0-0-0-----0-0-0------0-0-0---------------------3------3------3------3--= 5-
E-------------------------------------------1-1-1--1-1-1--1-1-1--1-1-1---= --


Chorus: (4:57)
e----------------------------------------------------------
B-----6------------------------------------6-8--8-8--------
G-3-5-5-7--3-5-7-7-----7-7-------------3-5-5-7--7-7--3-5---
D-3-5-3-7--3-5-7-7-----7-7------3-5-7--3-5-3-5--5-5--3-5---
A-1-3---5--1-3-5-5-5-5-----5-5---------1-3---5-5-----1-3---
E----------------------------------------------------------

e----------------------------------------------------------
B-----6------------------------------------6-8--8-8--------
G-3-5-5-7--3-5-7-7-----7-7-------------3-5-5-7--7-7--3-5---
D-3-5-3-7--3-5-7-7-----7-7------3-5-7--3-5-3-5--5-5--3-5-3-
A-1-3---5--1-3-5-5-5-5-----5-5---------1-3---5-5-----1-3-3-
E--------------------------------------------------------1-



******************************************
TAB symbols:

A.H. =3D Artificial Harmonic
p: pull-off
bh: bend a half step (half note)
bf: bend a full step (whole note)
/: rhythm slash - Strike the notated chord
~ =3D Vibrato

******************************************

www.shamantabs.cjb.net


     
Добавлено: 30.10.2013
Другие материалы по этой песне:

Страница создана 23.02.2012
http://primanota.ru/shaman/for-tomorrow-chords.htm
Привет, Гость.
Предлагаем пройти революционный курс по гитаре.
Подарок от PrimaNota.Ru, забирай!