PrimaNota.ru - самый крупный в мире бесплатный архив песенных текстов, аккордов, табулатур и нот


Sham 69 - Its Never Too Late - текст песни, таба, бас-таба, видео

Регистрация Запомнить меня
Войти через:  Facebook Google Twitter Vk Yandex Mail.ru

Sham 69 - Its Never Too Late - текст песни, таба, бас-таба, видео

Печатать
Просмотров: 145
 Favorite song by Sham. It's not that hard.

Intro
e|----2---|----2---|
B|----3-2-|----3-2-|
G|-1--2-2-|-1--2-2-|
D|-2--0-2-|-2--0-2-|
A|-2------|-2------|
E|-0------|-0------|

e|-----------------|
B|-----------------|
G|-4-4-4-4-4-4-4-4-|
D|-4-4-4-4-4-4-4-4-|
A|-2-2-2-2-2-2-2-2-|
E|-----------------|

Verse (I play chords, but you can barre it)
e|-------------------|
B|-------------------|
G|-2-2-2-5-5-5-4-4-2-| x2
D|-2-2-2-5-5-5-4-4-2-|
A|-0-0-0-3-3-3-2-2-0-|
E|-------------------|

Then... "All my life I wanted to know..."
e|-------------|
B|-------4-2-2-|
G|-4-4-4-4-2-2-| x2
D|-5-5-5-4-2-2-|
A|-5-5-5-2-0-0-|
E|-3-3-3-------|

Between verses
e|----------------------|
B|----------------------|
G|-7-7/10-10-10\9-9-2-2-|
D|-7-7/10-10-10\9-9-2-2-|
A|-5-5/8--8--8-\7-7-0-0-|
E|----------------------|

Chorus
e|-----------------------|
B|-----------------------|
G|-----------------------|
D|-------9-7-------7-7---|
A|-9-9-9-7-5-7-7-7-5-5-7-|
E|-7-7-7-----5-5-5-----5-|

Solo
e|----------------|---------------|
B|----------------|---------10-10-|
G|-9b-7-7---------|-9b-7-7--9--9--|
D|-----9-9----7h9-|-----9-9-------|
A|---------7h9----|---------------|
E|----------------|---------------|

e|-----------------------|
B|-8-8-8-8-8-8-8-8-10-10-|
G|-7-7-7-7-7-7-7-7-9--9--| x2
D|-----------------------|
A|-----------------------|
E|-----------------------|

Interlude
e|---------------------|
B|---------------------|
G|-9--9--8-8-7-7-7-6-6-| x4
D|-10-10-9-9-8-8-8-7-7-|
A|-10-10-9-9-8-8-8-7-7-|
E|-8--8--7-7-6-6-6-5-5-|

e|---------------------|
B|---------------------|
G|---------------------|
D|-7-7-7-7-7-7-7-7-7-7-|
A|-7-7-7-7-7-7-7-7-7-7-|
E|-5-5-5-5-5-5-5-5-5-5-|
  
There ya have it. Kick-ass song. Fun as hell to play.
Добавлено: 27.12.2013
Другие материалы по этой песне:
  • Аккорды и текст

Страница создана 27.12.2013
http://primanota.ru/sham-69/its-never-too-late-chords.htm
Привет, Гость.
Предлагаем пройти революционный курс по гитаре.
Подарок от PrimaNota.Ru, забирай!