PrimaNota.ru - самый крупный в мире бесплатный архив песенных текстов, аккордов, табулатур и нот


Sham 69 - Give Me A Minute - таба, видео

Регистрация Запомнить меня
Войти через:  Facebook Google Twitter Vk Yandex Mail.ru

Sham 69 - Give Me A Minute - таба, видео

Печатать
Просмотров: 228
Sham 69 - Give me a minute


Tuning: Standart
Mail: degot@bk.ru


Main riff
e|----------------------------------------|     e|----------------|
B|----------------------------------------|     B|----------------|
G|-------77-xx-55-xx----------------------|     G|----7-----------|
D|-------77-xx-55-xx-99-x-777-------------|     D|----7-----------|
A|-------55-xx-33-xx-99-x-777-------------|     A|----5(let_ring)-|
E|-------------------77-x-555-------------| x4  E|----------------|


Chorus (give me a minute...)
e|----------------------------------------------------------------|
B|----------------------------------------------------------------|
G|----------xx--555--777------------------------------------------|
D|-------7--xx--555--777------------------------------------------|
A|-------7--xx--333--555------------------------------------------|
E|-------5--------------------------------------------------------| x4


Then main riff,
then chorus,
then comes solo


+ - harmonic
^^ - full bend (e.g. 8+^^ - bend harmonic string)
^ - 1/2 bend
~ - vibrato
h - hammer-on
p - pull-off
\ - slide (e.g. 8\ - slide from 8 to nothing or zero)


Solo
e|------------------------------------------------------------8--8--8--8--8--------8--8-|
B|-------------------6------6-8^^8^^8^~-6h8-8+^^-6h8^^---8^^10-10-10-10--8-8--8^^10-10--|
G|------7--7--7--5-5--7--5h7------------------------------------------------------------|
D|----------------7-7-------------------------------------------------------------------|
A|--------------------------------------------------------------------------------------|
E|--------------------------------------------------------------------------------------| 

e|----------8--8--8--------5---7~\--------------------------------|
B|-----8^^10-10-10-10p8\---6---8~\--------------------------------|
G|----------------------------------------------------------------|
D|----------------------------------------------------------------|
A|----------------------------------------------------------------|
E|----------------------------------------------------------------| 


Then chorus,
then main riff,
then chorus x2 (x8 total)


End with
e|----------------|
B|----------------|
G|----7-----------|
D|----7-----------|
A|----5(let_ring)-|
E|----------------|
Добавлено: 07.03.2012
Другие материалы по этой песне:
  • Аккорды и текст

Страница создана 07.03.2012
http://primanota.ru/sham-69/give-me-a-minute-chords.htm
Привет, Гость.
Предлагаем пройти революционный курс по гитаре.
Подарок от PrimaNota.Ru, забирай!