PrimaNota.ru - самый крупный в мире бесплатный архив песенных текстов, аккордов, табулатур и нот


Shakira - Que Me Quedes Tu/one - таба, видео

Регистрация Запомнить меня
Войти через:  Facebook Google Twitter Vk Yandex Mail.ru

Shakira - Que Me Quedes Tu/one - таба, видео

Печатать
Просмотров: 216
para cualquier duda o correcci?n envienlo a san_roberth@hotmail.com
INTRO

E||3--6--3-----3----------|----------------------||
B||---------6-----6--3--6-|-3-----------3--6--3--||
G||-----------------------|----5--3--5-----------||
D||-----------------------|----------------------||
A||-----------------------|----------------------||
E||-----------------------|----------------------||



E||-------------------------------|------------------------|
B||-------------------------------|------------------------|
G||-------------------------------|------------------------|
D||-------------------------------|------------------------|
A||3--3--6--3—3/1-----------------|------------------------|
E||----------------3--3--6--3—-3--|-3--4--6--6—-6--6—-4--3-|

                      BIS
E|----------------------||
B|----------------------||
G|----------------------||
D|----------------------||
A|----------------------||
E|-1--1--5--1--1--5--1--||

F                      Cm
Que se arruinen los canales de noticias

Gm                    A#
Con lo mucho que odio la television

F                     Cm
Que se vuelvan anticuadas las sonrisas

Gm                        A#
Y que se extingan todas las puestas de sol

A#         F          Cm         Gm
Que se supriman las doctrinas y deberes

A#         F           Cm          Gm
Que se terminen las pel?culas de accion

A#          F          Cm          Gm
Que se destruyan en el mundo los placeres

A#           F           Cm           Gm
Y que se escriba hoy una ultima canci?n

CORO

                   A#
Pero que me quedes tu

            F
Me quede tu abrazo

              Gm              D
Y el beso que inventas cada dia

             A#
Que me quede aqu? 

               F
Despu?s del ocaso

             Gm          D
Para siempre tu melancolia

      A#     F     Cm       D
Porque yo yo si si que dependo de ti

            A#                F F# Gm
Si me quedas tu, me queda la vida.

F                  Cm  
Que desaparezcan todos los vecinos

Gm                       A#
Y se coman las sobras de mi inocencia

F                   Cm   
Que se vallan uno a uno los amigos

Gm                          A#
Y acribillen mi pedazo de conciencia

A#           F           Cm            Gm
Que se consuman las palabras en los labios

A#          F          Cm           Gm
Que contaminen toda el agua del planeta

A#       F            Cm          Gm    
O que renuncien los fil?ntropos y sabios

A#         F            Gm          Gm
Y que se muera hoy hasta el ultimo poeta

CORO

                   A#
Pero que me quedes tu

            F
Me quede tu abrazo

              Gm              D
Y el beso que inventas cada dia

             A#
Que me quede aqu? 

               F
Despu?s del ocaso

             Gm          D
Para siempre tu melancolia

      A#     F     Cm       D
Porque yo yo si si que dependo de ti

            A#                F F# Gm
Si me quedas tu, me queda la vida.


 SOLO

E||-3--6--3-----3------------------|-----------------||
B||----------6-----6--3-----3--6—3-|-----4--2--1--0--||
G||----------------------5---------|--3--5--3--2--1--||
D||--------------------------------|-----------------||
A||--------------------------------|-----------------||
E||--------------------------------|-----------------||


E||-3--6--3-----3-------------------|----------------||
B||----------6-----6--3-----3--6--3-|-----4--2--1--0-||
G||----------------------5----------|--3--5--3--2--1-||
D||---------------------------------|----------------||
A||---------------------------------|----------------||
E||---------------------------------|----------------||


E||-9/11--13--11--13--11--13--15--|-13--11--13--13--11---9-|-
B||-------------------------------|-------------13--12--10-|-
G||-------------------------------|------------------------|-
D||-------------------------------|------------------------|-
A||-------------------------------|------------------------|-
E||-------------------------------|------------------------|-


E||-9/11--13--11--13--11--13--15--|-13--11--13--13--11--9--|-
B||-------------------------------|-------------13--12--10-|-
G||-------------------------------|------------------------|-
D||-------------------------------|------------------------|-
A||-------------------------------|------------------------|-
E||-------------------------------|------------------------|-



CORO

                   A#
Pero que me quedes tu

            F
Me quede tu abrazo

              Gm              D
Y el beso que inventas cada dia

             A#
Que me quede aqu? 

               F
Despu?s del ocaso

             Gm          D
Para siempre tu melancolia

      A#     F     Cm       D
Porque yo yo si si que dependo de ti

            A#                F F# Gm
Si me quedas tu, me queda la vida.



Добавлено: 19.09.2013
Другие материалы по этой песне:
  • Аккорды и текст

Страница создана 19.09.2013
http://primanota.ru/shakira/que-me-quedes-tu-one-chords.htm
Привет, Гость.
Предлагаем пройти революционный курс по гитаре.
Подарок от PrimaNota.Ru, забирай!