PrimaNota.ru - самый крупный в мире бесплатный архив песенных текстов, аккордов, табулатур и нот


Shakey - Perfect Parts - таба, видео

Регистрация Запомнить меня
Войти через:  Facebook Google Twitter Vk Yandex Mail.ru

Shakey - Perfect Parts - таба, видео

Печатать
Просмотров: 116
-------------------------------------------------------------------------------
                            Perfect Parts - Shakey Graves
-------------------------------------------------------------------------------

Tuning: Standard

He plays it different each time, so this is the basic
chords and lay out, play it however you like


     Intro based around Em
e|-----3p0---0--3p0----0----------3p0----0---3-0-----0-----------------------|
B|---------3--------3-----------------3-----------3b-------------------------|
G|---------------------------------------------------------------------------|
D|--2------------------------------------------------------------------------|
A|--2------------------------------------------------------------------------|
E|--0---------------------3b-0----------------------------3b-----------------|

e|---------------------------------------------------------------------------|
B|----0--------------00----------------0-------------------------------------|
G|-----9-----99------99-----------9------9-----99----------------------------|
D|--9-------------9--------------9----9----------------79--------------------|
A|-7------77-----7-----------------------------------------------------------|
E|-----------------------7-7--88-----8-------88-----88-----------------------|
     Gm
e|-----3----------3----------------------------------------------------------|
B|------3--------3--------12---12--------------------------------------------|
G|--------------4---------12---------12----12------11-11----11---------------|
D|-----------5-----------------------12------------10-10----10---------------|
A|---------------------10----10----------------------------------------------|
E|--33------3----------------------10----10------8--------88-----------------|


So the intro covers all parts you can play the picking however you like
depending on the version your doing. These are the chord shapes your using




   Verse
   The beat count is above each chord shape
         6   2   8    4    2   2     8

e|--------------------3------------------------------------------------------|
B|--------------------3---12-------------------------------------------------|
G|-------9---9---9----4---12---12----11--------------------------------------|
D|-------9---9---9----5--------12----10--------------------------------------|
A|-------7------------5---10-------------------------------------------------|
E|-----------7---8----3--------10----8---------------------------------------|

      Chorus

    The chorus uses the Em part of the intro you can alternate the E and D 
    string throughout to make it sound fuller

e|-----3p0---0--3p0----0----------3p0----0---3-0-----0-----------------------|
B|---------3--------3-----------------3-----------3b-------------------------|
G|---------------------------------------------------------------------------|
D|--2------------------------------------------------------------------------|
A|--2------------------------------------------------------------------------|
E|--0---------------------3b-0----------------------------3b-----------------|

    Then it goes into strumming or picking of these chords the middle one
    is a single beat to transition between the two.


e|----8----7---5-------------------------------------------------------------|
B|----8----7---5-------------------------------------------------------------|
G|----9----8---6-------------------------------------------------------------|
D|----10---9---7-------------------------------------------------------------|
A|----10---9---7-------------------------------------------------------------|
E|----8----7---5-------------------------------------------------------------|

Lyrics


Well this city's put me through the wash
Mhmmm, I've been living here for you
Well I used to take my women on the rocks
Yeah, they used to wear out my ballroom shoes

Well you know that I had one to many drinks
Oh I found hope on your machine
Well you didn't answer my request
You left my whole world on your string

Well that's your thing

Well I see the words left on the screen
Yeah, you know they're bursting just for me
Well you know that I've known you since we were three
Oh, we fell in love at seventeen

Well so I say, what did I learn, what did I learn?
I said, oh you learned me the heart
Well your lies will burn in alcohol
To sterilize the perfect parts

Well at least that's a start



************************************

| /   slide up
| \   slide down
| h   hammer-on
| p   pull-off
| ~   vibrato
| +   harmonic
| x   Mute note
| b   Bend
| pb  Pre-bend
| br  Bend release
| pbr Pre-bend release
| brb Bend release bend

************************************
Добавлено: 12.08.2015
Другие материалы по этой песне:
  • Аккорды и текст

Страница создана 12.08.2015
http://primanota.ru/shakey/perfect-parts-chords.htm
Привет, Гость.
Предлагаем пройти революционный курс по гитаре.
Подарок от PrimaNota.Ru, забирай!