PrimaNota.ru - самый крупный в мире бесплатный архив песенных текстов, аккордов, табулатур и нот


Shakey Graves - Where A Boy Once Stood - таба, видео

Регистрация Запомнить меня
Войти через:  Facebook Google Twitter Vk Yandex Mail.ru

Shakey Graves - Where A Boy Once Stood - таба, видео

Печатать
Просмотров: 88
-------------------------------------------------------------------------------
                   Where A Boy Once Stood - Shakey Graves
-------------------------------------------------------------------------------

Tuning: Standard
Tabbed from https://www.youtube.com/watch?v=zl1Tqfn2924

Main chords are Am with an alternating base, F# dim, a variation on the F#dim and E

Main pattern, this repeats throughout the song, with variations on pick, sometimes he 
strums instead, watch the video for timings. He also slide the E down to the 13th fret on afew occasions 

e|--------------------------------------------------------------------------------0-------|
B|----1----1---1--------1----1----1--------1--------0---------1--------0---------0--------|
G|---2----2---2--------2----2----2--------2-2------1-1-------2-2------1-1-------1---------|
D|--2----2---2--------2----2----2--------0---0----0---0-----0---0----0---0-----2----------|
A|-0----3---0--------0----3----0----------------------------------------------2-----------|
E|---------------0-3----------------0-3-2------2-1------1-2-------2-1------1-0------------|

    Turn around
e|---------------------------------------------------------------------------|
B|---------------------------------------------------------------------------|
G|---------------------------------------------------------------------------|
D|---------------------------------------------------------------------------|
A|--3-2-0-2-0----------------------------------------------------------------|
E|---------------------------------------------------------------------------|
 
  Lyrics

Yeah well I got a stick and a beddin the rye
Give me the chance I'll be there by your side
Oh it's a long cold country with nobody home
Yeah if you want to face it you can face it alone with me

Yeah but if you don't watch me closely ill flee to the woods
Leave a gap in your heart where a boy once stood
Well cut it off and still it grows
Back in all the places you don't want it show the most

Well if you're still havin trouble, go call up your priest
Tell him there's a fella here givin you grief
It's a lanky ole loner on the outskirts of town
Tell him your lies, they're wearing you down

Yeah but if he can't help you go call up the judge
Tell him you're afraid that you're falling in love
But there's nowhere to go but down from here
So come along baby you got nothing to fear

************************************
Добавлено: 07.11.2015
Другие материалы по этой песне:
  • Аккорды и текст

Страница создана 07.11.2015
http://primanota.ru/shakey-graves/where-a-boy-once-stood-chords.htm
Привет, Гость.
Предлагаем пройти революционный курс по гитаре.
Подарок от PrimaNota.Ru, забирай!