PrimaNota.ru - самый крупный в мире бесплатный архив песенных текстов, аккордов, табулатур и нот


Shakey Graves - Nobodys Fool - таба, видео

Регистрация Запомнить меня
Войти через:  Facebook Google Twitter Vk Yandex Mail.ru

Shakey Graves - Nobodys Fool - таба, видео

Печатать
Просмотров: 33
-------------------------------------------------------------------------------
                             Nobody's Fool - Shakey Graves
-------------------------------------------------------------------------------
Tabbed by: Byron
E-mail: schu1939@umn.edu

Give it a shot, sprinkle corrections in or change it up entirely! Shakey is hard to tab for due to all the 
fills he throws in, so use the chords here as more of guidelines if you're looking for that eclectic sound.

Tuning: DADF#AD
/= slide up
\= slide down
h= hammer on
p= pull off

Intro: play once before starting the first verse

D|-----4-------3--------2-------------------------------------------------------------------|
A|-----0-------0--------0-----------------------0--0-----0--0-------------------------------|
F#|----3-------2--------1-----------------------3--3-----3--3-------------------------------|
D|---4---4-4\3----3-3\2----2-----------------4--4--4--2--2--2--0----2/4-2/4-2/4-------------|
A|------------------------------------2p0-----------------------------------------------2p0-|
D|---------------------------0----0h2-----0--------------------------------------0--0h2-----|


D|-----4-------3--------2------------------------------------------------------------------------------|
A|-----0-------0--------0------------------------0---0-------0---0-------------------------------------|
F#|----3-------2--------1------------------------3---3-------3---3-------------------------------------|
D|---4---4-4\3----3-3\2----2-----------------4---4---4---2---2---2---0-----------------2/4--2/4--2/4---|
A|------------------------------------2p0--------------------------------------------------------------|
D|---------------------------0----0h2-----0----------------------------------------------------------0-|
Part 1
     Ne  -   ver   -  a  - lone              always some new chaperone   seems you're  ne - ver a -  lone 

D|----------------------------------------------------------------------------|
A|----------------------------------------------------------------------------|
F#|-1--1--1-----0--0--0-----1--1--1------0--0--0------------------------------|
D|--0--0--0-----0--0--0-----0--0--0------0--0--0------------------------------|
A|--1--1--1-----0--0--0-----1--1--1------0--0--0------------------------------|
D|----------------------------------------------------------------------------|
Part 2
   Well you climb to the top of the pile
   Enjoy the view, stay for a while

D|--0--0--0----0--0--0--------------------------------------------------------------|
A|--2--2--2----0--0--0----0--0--0---------------------------------------------------|
F#|-1--1--1----0--0--0----1--1--1---------------------------------------------------|
D|------------------------2--2--2-------2/4--2/4--2/4-------------------------------|
A|--------------------------------------------------------------2p0-----------------|
D|----------------------------------------------------0-----0h2-----0---------------|
Part 3
    Hard to   get by   on your own  ne - ver - a- lone


The rest follows this pattern- here are the rest of the lyrics associated to the guitar part as labeled above:

(Part 1)
Life of regret
Each drink and each cigarette
leads to life of regret

(Part 2)
So go out, make your amends
Plant you a garden, get you some friends

(Part 3)
Trouble's still just what you get
In this life of regret

(Part 1)
Chosen by god
Whether you like it or now, you've been chosen by god

(Part 2)
So stand there, curse at the clouds
You know the answer, so scream it out loud

(Part 3)
Never no useless old slob
Never asleep on the job
Never forget what you're not
You've been chosen by god

(Part 1)
But you're nobody's fool
That's the one thing they don't teach in school
You ain't nobody's fool

(Part 2)
So don't worry, you'll turn out fine
Better off dead than waitin in line

(Part 3)
Stick to that golden old rule
You ain't NOBODY'S FOOL



************************************

| /   slide up
| \   slide down
| h   hammer-on
| p   pull-off
| ~   vibrato
| +   harmonic
| x   Mute note
| b   Bend
| pb  Pre-bend
| br  Bend release
| pbr Pre-bend release
| brb Bend release bend

************************************
Добавлено: 07.05.2016
Другие материалы по этой песне:
  • Аккорды и текст

Страница создана 07.05.2016
http://primanota.ru/shakey-graves/nobodys-fool-chords.htm
Привет, Гость.
Предлагаем пройти революционный курс по гитаре.
Подарок от PrimaNota.Ru, забирай!