PrimaNota.ru - самый крупный в мире бесплатный архив песенных текстов, аккордов, табулатур и нот


Shake Shake Go - England Skies - аккорды и текст, таба, видео

Регистрация Запомнить меня
Войти через:  Facebook Google Twitter Vk Yandex Mail.ru

Shake Shake Go - England Skies - аккорды и текст, таба, видео

Печатать
Просмотров: 464
Уроки эстрадного вокала в Санкт-Петербурге
England Skies
Shake Shake Go
--------------------------------------------------------------------------------------------------
                               ENGLAND SKIES by SHAKE SHAKE GO
--------------------------------------------------------------------------------------------------
Tabbed by Maddie Choi

CAPO 3

CHORDS - G  : 355433
         Am : x02210
         Em : 022000
         C  : x32010
         D  : xx0232
         D7 : xx0212
      Dsus4 : xx0233 (you can add your pinky to the D chord)


VERSES: 
 
   G                       Am                        Em                          C
e|----------------------------------------------------------------------------------------------------|
B|--------------------------------------1--------------------------------------------------1----------|
G|-------------4------------------2-----------2------------------0--------------------0----------0----|
D|-------5-----------5----------2---2-------2---2----------2-----------2------------2---2------2---2--|
A|-----5---5-------5---5----0----------------------------2---2-------2---2------3---------------------|
E|-3-------------------------------------------------0------------------------------------------------|


PRE-CHORUS:
Play Am(x4), G (x1)

D : 
e|-------------2----------------------2--------------------------------------|
B|-------3-----------3-----------3-----------3-------------------------------|
G|-----2---2-------2---2-------2---2-------2---2-----------------------------|
D|-0-----------------------0-------------------------------------------------|
A|---------------------------------------------------------------------------|
E|---------------------------------------------------------------------------|

Same picking style for D7



INTRO : G (x2)

VERSE :

 G             Am                Em
You're used to gray England Skies
        C              G
Cloudy days, colder nights
         Am               Em    C
And your heart's not right
 
 G               Am              Em
Thought you'd be quite happy there
        C              G
In that warm New York air
         Am             Em   C
But your heart's not right


PRE-CHORUS:

    Am                                                     
But if you sing along with me  
                               G
Do you think you could ever smile
D
Again?

 Am
If you sing this melody
                                  G
Do you think you could laugh again
        D
My friend?
                D7
Just try for me...


CHORUS : (x2)
     G Am   Em  C       G Am         Em (x2) D
Sing Oh,    ooooooh,   oooooooh,   ooooooh


VERSE :
G               Am        Em
Don't wait for England to chime
          C           G
Not for your heart or mine
       Am            Em     C
I know time is never kind
G              Am          Em
You miss your warm winter boots
        C            G
Say the tea's not as good
           Am       Em   C
But you'll be alright


PRE-CHORUS:
Am
Everyone is going out in summer hats 
               G       D
and colored T-shirts now
Am
Take a walk around the park
                         G    D
I know it will be better soon somehow
              D7
Just try for me


CHORUS : 

     G Am   Em  C       G Am         Em (x2) D
sing oh,    ooooooh,   oooooooh,   ooooooh
 C  G    Em  D     C G        Em (x2) D
 Oh,    ooooooh,   oooooooh,   ooooooh


BRIDGE/INSTRUMENTAL (play each chord twice) : 
Am   D  Em   G
Am   C  D  Dsus4


G                Am       Em  C
And I'll keep on waiting

G      Am     Em  C
For you

G Am   Em  C       G Am         Em (x2) D
Oh,    ooooooh,   oooooooh,   ooooooh

C  G    Em  D     C G        Em (x2) D
Oh,    ooooooh,   oooooooh,   ooooooh


C  G    Em  D     C G        Em (x2) D
Oh,    ooooooh,   oooooooh,   ooooooh

C 
(strummed)
Добавлено: 26.12.2015
Другие материалы по этой песне:
  • Аккорды и текст

Страница создана 04.08.2015
http://primanota.ru/shake-shake-go/england-skies-chords.htm
Привет, Гость.
Предлагаем пройти революционный курс по гитаре.
Подарок от PrimaNota.Ru, забирай!