PrimaNota.ru - самый крупный в мире бесплатный архив песенных текстов, аккордов, табулатур и нот


Shaka Ponk - My Boom Is Bumping - таба, видео

Регистрация Запомнить меня
Войти через:  Facebook Google Twitter Vk Yandex Mail.ru

Shaka Ponk - My Boom Is Bumping - таба, видео

Печатать
Просмотров: 118
Tuning standard, verse and chorus parts are always the same

VERSE 1

Well well, let me tell you how we feel
In my own body its x-mum chemical
You know where I go when I buy da coco,
I'm searching high and low, it's critical

e ----2-2----5-----2-2---5---2-----2-2---3---2---------7--7--7h----7h--7h-----------------|
B ----3-3----3-----3-3---3---3-----3-3---3---3---------7--7-----7h--------7h--------------|
G --4------4---4-3-----3---3---3-2-----2---2---2~3---------------------------7h-----------|  X4
D ----------------------------------------------------------------------------------------|
A ----------------------------------------------------------------------------------------|
E ----------------------------------------------------------------------------------------|

CHORUS 1

Time flies so I wanna be alive
Time flies so I wanna be alive

e --2-2--2-2---0-0-0---2-2--2--2---0--------------------------------------------------|
B --3-3--3-3---2-2-2---3-3--3--3---2--------------------------------------------------|
G --4-4--4-4---2-2-2---3-4--4--4---2--------------------------------------------------| X2
D --4-4--4-4---2-2-2---4-4--4--4---2--------------------------------------------------|
A --2-2--2-2---0-0-0---2-2--2--2---0--------------------------------------------------|
E ------------------------------------------------------------------------------------|

VERSE 2

I'm da mada ponky, shaka dead into
My heart is bumping and there's nothing I can do
Never been so jumpy, don't know what da do
My Boom Is Bumping cos' you fuck my head in two

Well well, let me tell you how we feel
In my own body its x-mum chemical
You know where I go when I buy da coco,
I'm searching high and low, it's critical

e ----2-2----5-----2-2---5---2-----2-2---3---2---------7--7--7h----7h--7h-----------------|
B ----3-3----3-----3-3---3---3-----3-3---3---3---------7--7-----7h--------7h--------------|
G --4------4---4-3-----3---3---3-2-----2---2---2~3---------------------------7h-----------|  X4
D ----------------------------------------------------------------------------------------|
A ----------------------------------------------------------------------------------------|
E ----------------------------------------------------------------------------------------|


CHORUS 2

Time flies so I wanna be alive
Time flies so I wanna be alive

e --2-2--2-2---0-0-0---2-2--2--2---0--------------------------------------------------|
B --3-3--3-3---2-2-2---3-3--3--3---2--------------------------------------------------|
G --4-4--4-4---2-2-2---3-4--4--4---2--------------------------------------------------| X2
D --4-4--4-4---2-2-2---4-4--4--4---2--------------------------------------------------|
A --2-2--2-2---0-0-0---2-2--2--2---0--------------------------------------------------|
E ------------------------------------------------------------------------------------|

VERSE 3

I'm da mada ponky, shaka dead into
My heart is bumping and there's nothing I can do
Never been so jumpy, don't know what da do
My Boom Is Bumping cos' you fuck my head in two

Well well, let me tell you how we feel
In my own body its x-mum chemical
You know where I go when I buy da coco,
I'm searching high and low, it's critical

e ----2-2----5-----2-2---5---2-----2-2---3---2---------7--7--7h----7h--7h-----------------|
B ----3-3----3-----3-3---3---3-----3-3---3---3---------7--7-----7h--------7h--------------|
G --4------4---4-3-----3---3---3-2-----2---2---2~3---------------------------7h-----------|  X4
D ----------------------------------------------------------------------------------------|
A ----------------------------------------------------------------------------------------|
E ----------------------------------------------------------------------------------------|


FINAL CHORUS

Time flies so I wanna be alive (I'm da mada ponky)
Time flies so I wanna be alive (I'm da mada ponky)
Time flies so I wanna be alive (I'm da mada ponky)
Time flies so I wanna be alive (I'm da mada ponky)

e --2-2--2-2---0-0-0---2-2--2--2---0--------------------------------------------------|
B --3-3--3-3---2-2-2---3-3--3--3---2--------------------------------------------------|
G --4-4--4-4---2-2-2---3-4--4--4---2--------------------------------------------------| X4
D --4-4--4-4---2-2-2---4-4--4--4---2--------------------------------------------------|
A --2-2--2-2---0-0-0---2-2--2--2---0--------------------------------------------------|
E ------------------------------------------------------------------------------------|
Добавлено: 30.06.2015
Другие материалы по этой песне:
  • Аккорды и текст

Страница создана 30.06.2015
http://primanota.ru/shaka-ponk/my-boom-is-bumping-chords.htm
Привет, Гость.
Предлагаем пройти революционный курс по гитаре.
Подарок от PrimaNota.Ru, забирай!