PrimaNota.ru - самый крупный в мире бесплатный архив песенных текстов, аккордов, табулатур и нот


Shaimus - Tie You Down - таба, видео

Регистрация Запомнить меня
Войти через:  Facebook Google Twitter Vk Yandex Mail.ru

Shaimus - Tie You Down - таба, видео

Печатать
Просмотров: 95
I was looking for tabs for this song all over the place
and couldn't find any so i attempted to learn it by ear so
comment and correct what you thing is wrong.
 I know it's not 100% correct.

e|---------------------------------------------------------------------|
B|---------------------------------------------------------------------|
G|---------------------------------------------------------------------|
D|---10-10-10-10-10-10\5-5/7\5-5-5--5/7\5-5-5--------------------------|
A|--------------------------------------------5/7\5-5-5--5/7\5-5-5-----|
E|---------------------------------------------------------------------|
Repeat as many times as needed.

Pause.


Play the above Riff once then play...
e|---------------------------------------------------------------------|
B|---10-10-10-10-------------------------------------------------------|
G|---------------12-12-12-12--10-10-10-10------------------------------|
D|---------------------------------------------------------------------|
A|---------------------------------------------------------------------|
E|---------------------------------------------------------------------|


Guitar Fill

e|---------------------------------------------------------------------|
B|---------------------------------------------------------------------|
G|-----------7////11---------------------------------------------------|
D|----4////7-----------------------------------------------------------|
A|--3------------------------------------------------------------------|
E|---------------------------------------------------------------------|

Chorus
e|---------------------------------------------------------------------|
B|---------------------------------------------------------------------|
G|------------7-7-7-7-9-9-9-9--12-12-12-12-12-12-12-12-----------------|
D|---7-7-7-7--5-5-5-5-7-7-7-7--10-10-10-10-10-10-10-10-----------------|
A|---7-7-7-7-----------------------------------------------------------|
E|---------------------------------------------------------------------|

This is what I think is wrong the most
Guitar Fill 2
e|---------------------------------------------------------------------|
B|------1----------1---------2---------3-------------------------------|
G|------0----------0---------2---------2-------------------------------|
D|----2---2------4---4-----2---2-----0---0-----------------------------|
A|--3----------5---------0---------0---------3-3-3-3-3-3-3-3-----------|
E|---------------------------------------------------------------------|


Intro Riff (Verse)...



Guitar Fill 1


Chorus...


Bridge!!!!
e|------------------------------------------------------------------------|
B|----------------------------------5-------------------------------------|
G|------5---7---5-------5---7---5-------5---7---5-------------------------|
D|----7---7---7---7---7---7---7---7---7---7---7---7-----------------------|
A|------------------------------------------------------------------------|
E|------------------------------------------------------------------------|
Repeat as many times needed

Palm mute the beginning then slowly release


Intro/Outro Riff

e|---------------------------------------------------------------------|
B|---------------------------------------------------------------------|
G|---------------------------------------------------------------------|
D|---10-10-10-10-10-10\5-5/7\5-5-5--5/7\5-5-5--------------------------|
A|--------------------------------------------5/7\5-5-5--5/7\5-5-5-----|
E|---------------------------------------------------------------------|


This was my first tab... Any one else who puts up tabs, i have one question.
How do you have the patience to do this? : P
Добавлено: 12.10.2013
Вам также может быть интересно:
Другие материалы по этой песне:
  • Аккорды и текст

Страница создана 12.10.2013
http://primanota.ru/shaimus/tie-you-down-chords.htm
Привет, Гость.
Предлагаем пройти революционный курс по гитаре.
Подарок от PrimaNota.Ru, забирай!