PrimaNota.ru - самый крупный в мире бесплатный архив песенных текстов, аккордов, табулатур и нот


Shai Hulud - This Wake I Myself Have Stirred - текст песни, таба, бас-таба, видео

Регистрация Запомнить меня
Войти через:  Facebook Google Twitter Vk Yandex Mail.ru

Shai Hulud - This Wake I Myself Have Stirred - текст песни, таба, бас-таба, видео

Печатать
Просмотров: 155
-------------------------------------------------------------------------------
                This Wake I Myself Have Stirred - Shai Hulud
-------------------------------------------------------------------------------
Tabbed by: Joaquin

Email: jkwan.the.clown@gmail.com

Tuning: standard

Note:  listen to the "Hearts once Nourished..." album version to figure out tempo and 

strumming pattern, it's not too hard.  

Note again: there are 2 guitars with timestamps, thats why the tab is so long.

Enjoy



__________GUITAR #1__________

0:00
Play 8x:
e|---------------------------------------------------------------------------|
B|---------------------------------------------------------------------------|
G|------9------9-------------------------------------------------------------|
D|---11-----11---9-----------------------------------------------------------|
A|-9------9--------11--------------------------------------------------------|
E|---------------------------------------------------------------------------|


0:17
Play 10x:
e|---------------------------------------------------------------------------|
B|---------------------------------------------------------------------------|
G|------9--------------------------------------------------------------------|
D|---11----------------------------------------------------------------------|
A|-9-------------------------------------------------------------------------|
E|---------------------------------------------------------------------------|


0:25
Play 2x:
e|---------------------------------------------------------------------------|
B|---------------------------------------------------------------------------|
G|------11------9------------------------------------------------------------|
D|---11------11--------------------------------------------------------------|
A|-9-------9-----------------------------------------------------------------|
E|---------------------------------------------------------------------------|


0:28

e|---------------------------------------------------------------------------|
B|---------------------------------------------------------------------------|
G|------11------11------------11---9-9-9-------------------------------------|
D|---11------11----11-9----11------9-9-9-9-----------------------------------|
A|-9-------9-------------9-------9-7-7-7-9-----------------------------------|
E|---------------------------------------7-----------------------------------|


0:34

e|-------------------------------|-------------------------------------------|
B|-------------------------------|-------------------------------------------|
G|---9-----------9---------------|----9-----------9--------------------------|
D|-----11-9--------11-11-11------|------11-9--------11-11-9------------------|
A|-9--------12-9-----------------|--9--------12-9----------------------------|
E|-------------------------------|-------------------------------------------|

e|-------------------------------|-------------------------------------------|
B|-------------------------------|-------------------------------------------|
G|---9-----------9---------------|----9-----------9-------11-----------------|
D|-----11-9--------11-11-11------|------11-9--------11-11--------------------|
A|-9--------12-9-----------------|--9--------12-9----------------------------|
E|-------------------------------|-------------------------------------------|

e|-------------------------------|-------------------------------------------|
B|-------------------------------|-------------------------------------------|
G|---9-----------9---------------|----9-----------9--------------------------|
D|-----11-9--------11-11-11------|------11-9--------11-11-9------------------|
A|-9--------12-9-----------------|--9--------12-9----------------------------|
E|-------------------------------|-------------------------------------------|

e|---------------------------------------------------------------------------|
B|---------------------------------------------------------------------------|
G|---9-----------9-----------11-11-11-11-11-11-------------------------------|
D|-----11-9--------11-11-11--------------------------------------------------|
A|-9--------12-9-------------------------------------------------------------|
E|---------------------------------------------------------------------------|


0:50

e|-------------------------------|-------------------------------------------|
B|-------------------------------|-------------------------------------------|
G|-7---------6---7-7-7-----------|-------6---7-7-7---------------------------|
D|-7-2-4-4-4-6-7-7-7-7-9-9-9-----|-4-4-4-6-7-7-7-7-9-------------------------|
A|-5-2-4-4-4-4-7-5-5-5-9-7-7-----|-4-4-4-4-7-5-5-5-9-------------------------|
E|---0-2-2-2---5-------7-7-7-----|-2-2-2---5-------7-------------------------|

e|-------------------------------|-------------------------------------------|
B|-------------------------------|-------------------------------------------|
G|-----------6---7-7-7-----------|-------6---7-7-7---------------------------|
D|-----4-4-4-6-7-7-7-7-9—9—9-----|-4-4-4-6-7-7-7-7-9-9-9---------------------|
A|-----4-4-4-4-7-5-5-5-9-7-7-----|-4-4-4-4-7-5-5-5-9-7-7---------------------|
E|-----2-2-2---5-------7-7-7-----|-2-2-2---5-------7-7-7---------------------|

e|-------------------------------|-------------------------------------------|
B|-------------------------------|-------------------------------------------|
G|-----------6---7-7-7-----------|-------6---7-7-7---------------------------|
D|-----4-4-4-6-7-7-7-7-9-9-9-----|-4-4-4-6-7-7-7-7-9-9-9---------------------|
A|-----4-4-4-4-7-5-5-5-9-7-7-----|-4-4-4-4-7-5-5-5-9-7-7---------------------|
E|-----2-2-2---5-------7-7-7-----|-2-2-2---5-------8-7-7---------------------|


1:04

e|---------------------------------------------------------------------------|
B|-----------4-4-4-4-4-------------------------------------------------------|
G|-6-6-6-6-6-6-6-6-6-6-------------------------------------------------------|
D|-6-6-6-6-6-6-6-6-6-6--4-4-4-4----4-4-4-4-2-2-------------------------------|
A|-4-4-4-4-4------------4-4-4-4----4-4-4-4-2-2-------------------------------|
E|----------------------2-2-2-2----2-2-2-2-0-0-------------------------------|


1:09

e|---------------------------------------------------------------------------|
B|---------------------------------------------------------------------------|
G|-7-7-7-7-7-----------------------------------------------------------------|
D|-7-7-7-7-7-2-2-2-2-2--4-4-7-6-4--------------------------------------------|
A|-5-5-5-5-5-2-2-2-2-2--4-4-7-6-4--------------------------------------------|
E|-----------0-0-0-0-0--2-2-5-4-2--------------------------------------------|


1:13

e|-------------------------------|-------------------------------------------|
B|-------------------------------|-------------------------------------------|
G|-----------6---7-7-7-----------|-------6---7-7-7---------------------------|
D|-----4-4-4-6-7-7-7-7-9-9-9-----|-4-4-4-6-7-7-7-7-9-------------------------|
A|-----4-4-4-4-7-5-5-5-9-7-7-----|-4-4-4-4-7-5-5-5-9-------------------------|
E|-----2-2-2---5-------7-7-7-----|-2-2-2---5-------7-------------------------|

e|-------------------------------|-------------------------------------------|
B|-------------------------------|-------------------------------------------|
G|-----------6---7-7-7-----------|-------6---7-7-7---------------------------|
D|-----4-4-4-6-7-7-7-7-9—9—9-----|-4-4-4-6-7-7-7-7-9-9-9---------------------|
A|-----4-4-4-4-7-5-5-5-9-7-7-----|-4-4-4-4-7-5-5-5-9-7-7---------------------|
E|-----2-2-2---5-------7-7-7-----|-2-2-2---5-------7-7-7---------------------|

e|-------------------------------|-------------------------------------------|
B|-------------------------------|-------------------------------------------|
G|-----------6---7-7-7-----------|-------6---7-7-7---------------------------|
D|-----4-4-4-6-7-7-7-7-9-9-9-----|-4-4-4-6-7-7-7-7-9-9-9---------------------|
A|-----4-4-4-4-7-5-5-5-9-7-7-----|-4-4-4-4-7-5-5-5-9-7-7---------------------|
E|-----2-2-2---5-------7-7-7-----|-2-2-2---5-------8-7-7---------------------|


1:27

e|---------------------------------------------------------------------------|
B|-----------4-4-4-4-4-------------------------------------------------------|
G|-6-6-6-6-6-6-6-6-6-6-------------------------------------------------------|
D|-6-6-6-6-6-6-6-6-6-6--4-4-4-4----4-4-4-4-2-2-------------------------------|
A|-4-4-4-4-4------------4-4-4-4----4-4-4-4-2-2-------------------------------|
E|----------------------2-2-2-2----2-2-2-2-0-0-------------------------------|


1:31

e|---------------------------------------------------------------------------|
B|---------------------------------------------------------------------------|
G|-7-7-7-7-7-----------------------------------------------------------------|
D|-7-7-7-7-7-2-2-2-2-2--4-4-7-6-4--------------------------------------------|
A|-5-5-5-5-5-2-2-2-2-2--4-4-7-6-4--------------------------------------------|
E|-----------0-0-0-0-0--2-2-5-4-2--------------------------------------------|


1:36

e|-------------------------------|-------------------------------------------|
B|-------------------------------|-------------------------------------------|
G|---9-----------9---------------|----9-----------9--------------------------|
D|-----11-9--------11-11-11------|------11-9--------11-11-9------------------|
A|-9--------12-9-----------------|--9--------12-9----------------------------|
E|-------------------------------|-------------------------------------------|

e|-------------------------------|-------------------------------------------|
B|-------------------------------|-------------------------------------------|
G|---9-----------9---------------|----9-----------9-------11-----------------|
D|-----11-9--------11-11-11------|------11-9--------11-11--------------------|
A|-9--------12-9-----------------|--9--------12-9----------------------------|
E|-------------------------------|-------------------------------------------|

e|-------------------------------|-------------------------------------------|
B|-------------------------------|-------------------------------------------|
G|---9-----------9---------------|----9-----------9--------------------------|
D|-----11-9--------11-11-11------|------11-9--------11-11-9------------------|
A|-9--------12-9-----------------|--9--------12-9----------------------------|
E|-------------------------------|-------------------------------------------|

e|---------------------------------------------------------------------------|
B|---------------------------------------------------------------------------|
G|---9-----------9-----------11----------------------------------------------|
D|-----11-9--------11-11-11--------------------------------------------------|
A|-9--------12-9-------------------------------------------------------------|
E|---------------------------------------------------------------------------|


1:53
Play 8x:
e|---------------------------------------------------------------------------|
B|---------------------------------------------------------------------------|
G|------9------9-------------------------------------------------------------|
D|---11-----11---9-----------------------------------------------------------|
A|-9------9--------11--------------------------------------------------------|
E|---------------------------------------------------------------------------|


2:10
Play 10x:
e|---------------------------------------------------------------------------|
B|---------------------------------------------------------------------------|
G|------9--------------------------------------------------------------------|
D|---11----------------------------------------------------------------------|
A|-9-------------------------------------------------------------------------|
E|---------------------------------------------------------------------------|


2:18
Play 2x:
e|---------------------------------------------------------------------------|
B|---------------------------------------------------------------------------|
G|------11------9------------------------------------------------------------|
D|---11------11--------------------------------------------------------------|
A|-9-------9-----------------------------------------------------------------|
E|---------------------------------------------------------------------------|


e|---------------------------------------------------------------------------|
B|---------------------------------------------------------------------------|
G|------11------11------------11---9-9-9-------------------------------------|
D|---11------11----11-9----11------9-9-9-9-----------------------------------|
A|-9-------9-------------9-------9-7-7-7-9-----------------------------------|
E|---------------------------------------7-----------------------------------|


2:26

e|-------------------------------|-------------------------------------------|
B|-------------------------------|-------------------------------------------|
G|---9-----------9---------------|----9-----------9--------------------------|
D|-----11-9--------11-11-11------|------11-9--------11-11-9------------------|
A|-9--------12-9-----------------|--9--------12-9----------------------------|
E|-------------------------------|-------------------------------------------|

e|-------------------------------|-------------------------------------------|
B|-------------------------------|-------------------------------------------|
G|---9-----------9---------------|----9-----------9-------11-----------------|
D|-----11-9--------11-11-11------|------11-9--------11-11--------------------|
A|-9--------12-9-----------------|--9--------12-9----------------------------|
E|-------------------------------|-------------------------------------------|

e|-------------------------------|-------------------------------------------|
B|-------------------------------|-------------------------------------------|
G|---9-----------9---------------|----9-----------9--------------------------|
D|-----11-9--------11-11-11------|------11-9--------11-11-9------------------|
A|-9--------12-9-----------------|--9--------12-9----------------------------|
E|-------------------------------|-------------------------------------------|

e|---------------------------------------------------------------------------|
B|---------------------------------------------------------------------------|
G|---9-----------9-----------11-11-11-11-11-11---11--------------------------|
D|-----11-9--------11-11-11-------------------------2-4----------------------|
A|-9--------12-9------------------------------------2-4----------------------|
E|--------------------------------------------------0-2----------------------|








__________GUITAR #2__________

0:00

e|---------------------------------------------------------------------------|
B|---------------------------------------------------------------------------|
G|-----7---6----------7---6--------------------------------------------------|
D|-4---7---7------4---7---7--------------------------------------------------|
A|-4---5---5------4---5---5--------------------------------------------------|
E|-2--------------2----------------------------------------------------------|


0:17

e|---------------------------------------------------------------------------|
B|---------------------------------------------------------------------------|
G|-----7---6----------7---6----------7---6----------7---6--------------------|
D|-4---7---7------4---7---7------4---7---7------4---7---7-7------------------|
A|-4---5---5------4---5---5------4---5---5------4---5---5-7------------------|
E|-2--------------2--------------2--------------2---------5------------------|


0:34

e|---------------------------------------------------------------------------|
B|---------------------------------------------------------------------------|
G|---7-6--------------7-6------------7-6--------------7xxxx-7----------------|
D|-4-7-7-7-6------4-2-7-7-7-6------4-7-7-7-6------4-2-7xxxx-7-2-4------------|
A|-4-5-5-7-7------4-2-5-5-7-7------4-5-5-7-7------4-2-5xxxx-5-2-4------------|
E|-2-----5-5------2-0-----5-5------2-----5-5------2-0---------0-2------------|


0:53

e|---------------------------------------------------------------------------|
B|---------------------------------------------------------------------------|
G|-----7-7-7-----------------------------------------------------------------|
D|-4---7-7-7-7---------------------------------------------------------------|
A|-4---5-5-5-7---------------------------------------------------------------|
E|-2---------5---------------------------------------------------------------|


0:55

e|---------------------------------------------------------------------------|
B|---------------------------------------------------------------------------|
G|-11--13--14--11--13h14--14/16--11--13--14--11--13h14--14/16----------------|
D|---------------------------------------------------------------------------|
A|---------------------------------------------------------------------------|
E|---------------------------------------------------------------------------|


1:04

e|---------------------------------------------------------------------------|
B|---------------------------------------------------------------------------|
G|-6---------------7-9------11-----------------------------------------------|
D|-6--2--4x-4x-4-2-7-9------11-7-6-4-----------------------------------------|
A|-4--2--4x-4x-4-2-5-7-7/12-9--7-6-4-----------------------------------------|
E|----0--2x-2x-2-0-------------5-4-2-----------------------------------------|


1:14

e|---------------------------------------------------------------------------|
B|---------------------------------------------------------------------------|
G|-11--14--11--13--14--11--13h14--14/16--11--13--14--11--13h14--14/16--------|
D|---------------------------------------------------------------------------|
A|---------------------------------------------------------------------------|
E|---------------------------------------------------------------------------|


1:27

e|---------------------------------------------------------------------------|
B|---------------------------------------------------------------------------|
G|-6---------------7-9------11-----------------------------------------------|
D|-6--2--4x-4x-4-2-7-9------11-7-6-4-----------------------------------------|
A|-4--2--4x-4x-4-2-5-7-7/12-9--7-6-4-----------------------------------------|
E|----0--2x-2x-2-0-------------5-4-2-----------------------------------------|


1:36

e|---------------------------------------------------------------------------|
B|---------------------------------------------------------------------------|
G|---7-6--------------7-6------------7-6--------------7-6--------------------|
D|-4-7-7-7-6------4-2-7-7-7-6------4-7-7-7-6------4-2-7-7-7-6----------------|
A|-4-5-5-7-7------4-2-5-5-7-7------4-5-5-7-7------4-2-5-5-7-7----------------|
E|-2-----5-5------2-0-----5-5------2-----5-5------2-0-----5-5----------------|


1:53

e|---------------------------------------------------------------------------|
B|---------------------------------------------------------------------------|
G|-----7---6----------7---6--------------------------------------------------|
D|-4---7---7------4---7---7--------------------------------------------------|
A|-4---5---5------4---5---5--------------------------------------------------|
E|-2--------------2----------------------------------------------------------|


2:10

e|---------------------------------------------------------------------------|
B|---------------------------------------------------------------------------|
G|-----7---6----------7---6----------7---6----------7---6--------------------|
D|-4---7---7------4---7---7------4---7---7------4---7---7-7------------------|
A|-4---5---5------4---5---5------4---5---5------4---5---5-7------------------|
E|-2--------------2--------------2--------------2---------5------------------|


2:27

e|---------------------------------------------------------------------------|
B|---------------------------------------------------------------------------|
G|---7-6--------------7-6------------7-6--------------7xxxx--7---------------|
D|-4-7-7-7-6------4-2-7-7-7-6------4-7-7-7-6------4-2-7xxxx--7-2-4-----------|
A|-4-5-5-7-7------4-2-5-5-7-7------4-5-5-7-7------4-2-5xxxx--5-2-4-----------|
E|-2-----5-5------2-0-----5-5------2-----5-5------2-0----------0-2-----------|



| /  slide up
| \  slide down
| h  hammer-on
| p  pull-off
| ~  vibrato
| +  harmonic
| x  Mute note
===============================================================================


Please send me your corrections and complaints to jkwan.the.clown@gmail.com
Добавлено: 09.04.2012
Вам также может быть интересно:
Другие материалы по этой песне:

Страница создана 09.04.2012
http://primanota.ru/shai-hulud/this-wake-i-myself-have-stirred-chords.htm
Привет, Гость.
Предлагаем пройти революционный курс по гитаре.
Подарок от PrimaNota.Ru, забирай!