PrimaNota.ru - самый крупный в мире бесплатный архив песенных текстов, аккордов, табулатур и нот


Shadowy Men On A Shadowy Planet - Zombie compromise - таба, видео

Регистрация Запомнить меня
Войти через:  Facebook Google Twitter Vk Yandex Mail.ru

Shadowy Men On A Shadowy Planet - Zombie compromise - таба, видео

Печатать
Просмотров: 99
Уроки эстрадного вокала в Санкт-Петербурге


-----------------------------------------------------------------------
Zombie Compromise- Shadowy Men on a Shadowy Planet
-----------------------------------------------------------------------
Tabbed by: Taylor Woodruff
Email: TJgr8sk8@sbcglobal.net

Tuning: Standard

Main Riff
e|---------------------------------------------------------|
B|---------------------------------------------------------|
G|--4--4-4-3-3-3-3-4---3-3-3-4--4-4-3-3-3-3-4--------------|
D|--2--2-2-2-2-2-2-2---2-2-2-2--2-2-2-2-2-2-2--------------|
A|--2--2-2-1-1-1-1-2---1-1-1-2--2-2-1-1-1-1-2--------------|
E|---------------------------------------------------------|

						~~~~~~~ dive on Whammy bar
e|--------------------------------------------0-------|
B|--------------------------------------------0-------|
G|--4--4-4-3-3-3-3-4-3-3-3-4--4-4-3-3-3-3-4---0-------|
D|--2--2-2-2-2-2-2-2-2-2-2-2--2-2-2-2-2-2-2---2-------|
A|--2--2-2-1-1-1-1-2-1-1-1-2--2-2-1-1-1-1-2---2-------|
E|--------------------------------------------0-------|

Lick 1:

e|--0----------------------------------------------------------|
B|--0----------------------------------------------------------|
G|-------0---2^-0-----0--------------0---0-2^-2^-2^-2^-2^p0----|
D|----2----2------2-2---2-0-----0-2----2---------------------2-|
A|--------------------------2-2--------------------------------|
E|-------------------------------------------------------------|Repeat

Lick 2:

e|---------------------------------------------------|
B|---------------------------------------------------|
G|------------------------------0---2-0-2^-2^-2^p0---|
D|--2--2-0-2--2-0-2--2-0-2--2-0---2------------------|
A|---------------------------------------------------|
E|---------------------------------------------------|


e|----------------------------------------------------------|
B|----------------------------------------------------------|
G|----------------------------------------------------------|
D|-2--2-0-2--2-0-2--2-0-2--2-0-2---0---0-------0-----0-2----|
A|-----------------------------------2---2-0-2---2-0--------|
E|----------------------------------------------------------|

Bridge:

e|----------------------------------------------------|
B|--------------------------------------------------5-|
G|------------------------------------------------5---|
D|----------------------------------------------5-----|
A|--7-7-7-7-7-7-5-5-5-5-5-5-4-4-4-4-4-4-3-3-3-3-------|
E|-------------------------------------------------------|

Order:

Main Riff
Lick 1 (2x)
Main Riff
Lick 2 (1x)
Main Riff
(weird Bass solo + drums)
Bridge
Main Riff


| /  slide up
|   slide down
| h  hammer-on
| p  pull-off
| ~  vibrato
| +  harmonic
| x  Mute note


I couldn't quite figure out the ending, but its better than nothing, I hope its good.
Enjoy 


Добавлено: 14.10.2013
Другие материалы по этой песне:
  • Аккорды и текст

Страница создана 14.10.2013
http://primanota.ru/shadowy-men-on-a-shadowy-planet/zombie-compromise-chords.htm
Привет, Гость.
Предлагаем пройти революционный курс по гитаре.
Подарок от PrimaNota.Ru, забирай!