PrimaNota.ru - самый крупный в мире бесплатный архив песенных текстов, аккордов, табулатур и нот


Shadowy Men On A Shadowy Planet - Reids Situation - таба, видео

Регистрация Запомнить меня
Войти через:  Facebook Google Twitter Vk Yandex Mail.ru

Shadowy Men On A Shadowy Planet - Reids Situation - таба, видео

Печатать
Просмотров: 121
Уроки эстрадного вокала в Санкт-Петербурге
--------------------------|
D|-------| ----------------------------------------------------|
A|-------|.---------4-2-2-2---2---2----------4-2---------------|
E|-4-4-3-| -2-2-0-2---------4---4----2-2-0-2-----0-0-0-2^3-2^3-|

E|----------------------------------------------------- |
B|-----------------------------------------------------.|
G|----------------------------------------------------- |
D|-------1s4-----------------------1s4-----------2----- |
A|-----------4-2-4-2-4-2---------------4-2-4-2-4---4-2-.|
E|-0-0-0-----------------4-2-0-0-0--------------------- |

E|-------------------------------------------------|
B|-------------------------------------------------|
G|-------------------------------------------------|
D|-------1s4-----------------------1s4-------------|
A|-----------4-2-4-2-4-2---------------4-2-4-2-4-2-|
E|-0-0-0-----------------4-2-0-0-0-----------------|

E|-0---0-0---0-0-0-0-0-0-0-0-0-0-0-0-0-0-0-0-0-|
B|-0---0-0---3-3-2-2-0-0-2-0-0-3-3-2-2-0-0-2-0-|
G|-2---2-2---2-2-2-2-2-2-2-2-2-2-2-2-2-2-2-2-2-|
D|-2---2-2-------------------------------------|
A|---------------------------------------------|
E|---------------------------------------------|

E|-----------------------------------------------------------|
B|-----------------------------------------------------------|
G|-----------------------------------------------------------|
D|-----------------------------------------------------------|
A|----------------4-2-2-2---2---2----------4-2---------------|
E|-4-4-3--2-2-0-2---------4---4----2-2-0-2-----0-0-0-2^3-2^3-|

E|-----------------------------------------------------|
B|-----------------------------------------------------|
G|-----------------------------------------------------|
D|-------1s4-----------------------1s4-----------2-----|
A|-----------4-2-4-2-4-2---------------4-2-4-2-4---4-2-|
E|-0-0-0-----------------4-2-0-0-0---------------------|

E|-------------------------------------------------|
B|-------------------------------------------------|
G|-------------------------------------------------|
D|-------1s4-----------------------1s4-------------|
A|-----------4-2-4-2-4-2---------------4-2-4-2-4-2-|
E|-0-0-0-----------------4-2-0-0-0-----------------|

E|-0---------------------0----|
B|-0---------------------0----|
G|-4---------------------1----| Not sure about this
D|-4---------------------2----| last line.  If yous
A|-2--------2-2-2-2------2----| gots a better one,
E|--------4---------4-2--0----| send it.
Добавлено: 13.07.2012
Другие материалы по этой песне:
  • Аккорды и текст

Страница создана 13.07.2012
http://primanota.ru/shadowy-men-on-a-shadowy-planet/reids-situation-chords.htm
Привет, Гость.
Предлагаем пройти революционный курс по гитаре.
Подарок от PrimaNota.Ru, забирай!