PrimaNota.ru - самый крупный в мире бесплатный архив песенных текстов, аккордов, табулатур и нот


Shadowy Men On A Shadowy Planet - Our Weapons Are Useless - таба, видео

Регистрация Запомнить меня
Войти через:  Facebook Google Twitter Vk Yandex Mail.ru

Shadowy Men On A Shadowy Planet - Our Weapons Are Useless - таба, видео

Печатать
Просмотров: 101
Уроки эстрадного вокала в Санкт-Петербурге
Transcribed by: Nat Hostetler (Ultimavatar@yahoo.com)
Song: Our Weapons are Useless
Artist: Shadowy Men on a Shadowy Planet

Shadowy Men are the guys who do all the music for The
Kids in the Hall. This is one of their coolest songs,
not to mention one of the coolest songs ever. It
sounds good with a Strat and lots of reverb, like most
surf songs.

/=slide
^=Hammer on/Pull off

Intro (all the 12's are harmonics)
e-------------------------------
B-12-12--------------12---------
G-12---12--12----0--------------
D-12-----12--12----12-----------
A-------------------------------
E---------------0---------------

Riff A
e-------------------------------
B---0--0--0--0------------------
G--3--3--3--3--0----------------
D-2--2--2--2----2-2-2-0--0^2^0^2
A-----------------------2-------
E-------------------------------

Riff B
e------------------------------------------------
B------------------------------------------------
G-5/9-9-0-7-5-5/9-9-0-7-5\4-5-0-5-4^5^4^5-4-4-2-4
D------------------------------------------------
A------------------------------------------------
E------------------------------------------------

Riff B continued
e-----------------------------------------------------
B-----------------------------------------------------
G-5/9-9-0-7-5-5/9-9-0-7-5/11-12-12-11-0-12-11^12^11^12

D-----------------------------------------------------
A-----------------------------------------------------
E-----------------------------------------------------

Riff C
e------00-------00---33-------------
B---1----11---1---11---33-----------
G-22-2------22-2---------44---------
D--------------------------55555554-
A-----------------------------------
E-----------------------------------

Intro
Riff A (Verse)
Riff B (Chorus)
Riff A (Verse)
Riff B (Chorus)
Riff C (Bridge)
Riff A (Verse)
Riff B (Chorus)
Riff C (Bridge)
Riff A (Outro)

=====
"And I thought I wanted to die yesterday!"
~Nat
     
Добавлено: 23.07.2013
Другие материалы по этой песне:
  • Аккорды и текст

Страница создана 23.07.2013
http://primanota.ru/shadowy-men-on-a-shadowy-planet/our-weapons-are-useless-chords.htm
Привет, Гость.
Предлагаем пройти революционный курс по гитаре.
Подарок от PrimaNota.Ru, забирай!