PrimaNota.ru - самый крупный в мире бесплатный архив песенных текстов, аккордов, табулатур и нот


Shadowy Men On A Shadowy Planet - Egypt Texas - таба, видео

Регистрация Запомнить меня
Войти через:  Facebook Google Twitter Vk Yandex Mail.ru

Shadowy Men On A Shadowy Planet - Egypt Texas - таба, видео

Печатать
Просмотров: 118

 

SHADOWY MEN ON A SHADOWY PLANET EGYPT TEXAS TAB              


Part 1

e-----------------------------------------------------------------------
B-----------------------------------------------------------------------
G-----------------------------------------------------------------------
D-----------------------------------------------------------------------
A-0---2h3-3---3---3-2~--------------0-3-2---3---3/5.---0-3-2------------
E--------------------------------------------------------------3--------


e-----------------------------------------------------------------------
B-----------------------------------------------------------------------
G-----------------------------------------------------------------------
D-----2-2-2-2-2-2-2-1~--------------0-----------0-0-2-2-3-3-2-2---------
A-0---3-3-3-3-3-3-3-2~----------------3-2---3---------------------------
E-----------------------------------------------------------------------


e------------------------------------------5---5-5-4-5-4----------------
B----------5---5-5-4-5-4~------4-4-----6-----------------6-5-6-5--------
G------5---------------------------7-7---7-----------------------5------
D-/7-----7--------------------------------------------------------------
A-----------------------------------------------------------------------
E-----------------------------------------------------------------------


e-----------------------------------------------------------------------
B-----------------------------------------------------------------------
G-----5---5---5-7-------------------------5---7-5-7(9)---7(9)---7-5-----
D-7-7---7-------------5---5---7-5-7---7-7---------------------------7-5-
A-----------------7-7---7-----------------------------------------------
E-----------------------------------------------------------------------


e-----------------------------------------------------------------------
B-----------------------------------------------------------------------
G-----------------------------------------------------------------------
D-----------------------------------------------------------------------
A-0---3---3---3---3-2~----------------3-2---3---5---3---2---------------
E-----------------------------------------------------------3-----------


e-----------------------------------------------------------------------
B-----------------------------------------------------------------------
G-----------------------------------------------------------------------
D-----2-2-2-2-2-2-2-1~--------------0-----------0-0-2-2-3-3-2-2---------
A-0---3-3-3-3-3-3-3-2~----------------3-2---3---------------------------
E-----------------------------------------------------------------------


e-------------------------------------------5---5-5-4-5-4---------------
B----------5---5-5-4-5-4~---4---4-4-----6-----------------6-5-6-5-------
G------5----------------------------7-7---7-----------------------5-----
D-/7-----7--------------------------------------------------------------
A-----------------------------------------------------------------------
E-----------------------------------------------------------------------


e-----------------------------------------------------------------------
B-----------------------------------------------------------------------
G-----5---5---5-7-------------------------5---7-5-7(9)---7(9)---7-5-----
D-7-7---7-------------5---5---7-5-7---7-7---------------------------7-5-
A-----------------7-----7-----------------------------------------------
E-----------------------------------------------------------------------


e-----------------------------------------------------------------------
B-----------------------------------------------------------------------
G-----------------2-----------------------2-----------------------------
D-----2-------0-3-------------2-------0-3-------------------------------
A-0-3-------2-----------2-0-3-------2-----------2-----------------------
E-------0-3---------0-3---------0-3---------0-3-------------------------


e-----------------------------------------------------------------------
B-----------------------------------------------------------------------
G-----------------2-----------------------2-1---------------------------
D-----2-------0-3-------------2-------0-3-----2-------------------------
A-0-3-------2-----------2-0-3-------2-----------3-----------------------
E-------0-3---------0-3---------0-3-------------------------------------


e-----------------------------------------------------------------------
B-----------------------------------------------------------------------
G-----------------------------------------------------------------------
D-----------------------------------------------------------------------
A-0---0-0-----0-0-----0-0-----0-0-----0-0-----0-0-------------3-2-------
E---------4h5-----4h5-----4h5-----4h5-----4h5-----5-0-0-0-0-0-----------


Part 2

e-----------------------------------------------------------------------
B-----------------------------------------------------------------------
G-----------------------------------------------------------------------
D-----------------------------------------------------------------------
A-0---3---3---3---3-2~----------------3-2---3---5.----3-2.--------------
E-------------------------------------------------------------3---------


e-----------------------------------------------------------------------
B-----------------------------------------------------------------------
G-----------------------------------------------------------------------
D-----2-2-2-2-2-2-2-1~--------------0-----------0-0-2-2-3-3-2-2---------
A-0---3-3-3-3-3-3-3-2~----------------3-2---3---------------------------
E-----------------------------------------------------------------------


e------------------------------------------5---5-5-4-5-4----------------
B----------5---5-5-4-5-4~------4-4-----6-----------------6-5-6-5--------
G------5---------------------------7-----7-----------------------5------
D-/7-7---7--------------------------------------------------------------
A-----------------------------------------------------------------------
E-----------------------------------------------------------------------


e-----------------------------------------------------------------------
B-----------------------------------------------------------------------
G-----5---5---5-7-------------------------5---7-5-7(9)---7(9)---7-5-----
D-7-7---7-------------5---5---7-5-7---7-7---------------------------7-5-
A-----------------7-7---7-----------------------------------------------
E-----------------------------------------------------------------------


e-----------------------------------------------------------------------
B-----------------------------------------------------------------------
G-----------------2-----------------------2-----------------------------
D-----2-------0-3-------------2-------0-3-------------------------------
A-0-3-------2-----------2-0-3-------2-----------2-----------------------
E-------0-3---------0-3---------0-3---------0-3-------------------------


e-----------------------------------------------------------------------
B-----------------------------------------------------------------------
G-----------------2-----------------------2-----------------------------
D-----2-------0-3-------------2-------0-3-------------------------------
A-0-3-------2-----------2-0-3-------2-----------2-----------------------
E-------0-3---------0-3---------0-3---------0-3-------------------------

G1
e-----------------------------------------------------------------------
B-----------------------------------------------------------------------
G-----------------2-----------------------2-----------------------------
D-----2-------0-3-------------2-------0-3-------------------------------
A-0-3-------2-----------2-0-3-------2-----------2-----------------------
E-------0-3---------0-3---------0-3---------0-3-------------------------

G2
e-----------------------------------------------------------------------
B-5-----------------------5---------------------------------------------
G-----------5-7-----5-7-5-----------5-7-/-9-9-10---9--------------------
D-------7-----------------------7---------------------------------------
A-----------------------------------------------------------------------
E-----------------------------------------------------------------------


e-----------------------------------------------------------------------
B-----------------------------------------------------------------------
G-----------------------------------------------------------------------
D-----2-----------------------------------------------------------------
A-0-3-------2-/5~----------5\3---3-/-5-----3h5p3-\-2-3---2--------------
E-------0-3-------------------------------------------------------------


e-----------------------------------------------0-----------------------
B-------------------------------------------1---------------------------
G---------------------------------------2-------------------------------
D------- tremolo -------------------2----------------- tremolo ---------
A-------------------------------0---------------------------------------
E-0----\\\\---////------------------------------------------------------



Добавлено: 23.06.2015
Другие материалы по этой песне:
  • Аккорды и текст

Страница создана 23.06.2015
http://primanota.ru/shadowy-men-on-a-shadowy-planet/egypt-texas-chords.htm
Привет, Гость.
Предлагаем пройти революционный курс по гитаре.
Подарок от PrimaNota.Ru, забирай!