PrimaNota.ru - самый крупный в мире бесплатный архив песенных текстов, аккордов, табулатур и нот


Shadows - Stars Fell On Stockton - таба, бас-таба, видео

Регистрация Запомнить меня
Войти через:  Facebook Google Twitter Vk Yandex Mail.ru

Shadows - Stars Fell On Stockton - таба, бас-таба, видео

Печатать
Просмотров: 129
STARS FELL ON STOCKTON

As recorded by The Shadows
(Released as a Single in 1962)

Music by Bruce Welch, Hank B. Marvin, Jet Harris & Brian Bennett

Transcribed by Slowhand

Gtr I (E A D G B E) - 'Hank Marvin - Electric Guitar '
Gtr II (E A D G B E) - 'Bruce Welch - Electric Guitar'
Gtr III (E A D G B E) - 'Whistle'


    Q=242
    C        Dm         Em       F
   4/4
    Gtr I
    Q.     E Q.     E   Q.     E Q.     E
||--------------------|-------------------|
||o-------------------|-------------------|
||--------------------|-------------------|
||-----------0------0-|-2------2-3------3-|
||o-3------3----------|-------------------|
||--------------------|-------------------|
|
|   Gtr II
|   E  E E E E  E E E   E  E E E E  E E E
||--0--0-0-0-1--1-1-1-|-0--0-0-0-1--1-1-1-|
||o-1--1-1-1-3--3-3-3-|-0--0-0-0-1--1-1-1-|
||--0--0-0-0-2--2-2-2-|-0--0-0-0-2--2-2-2-|
||--2--2-2-2-0--0-0-0-|-2--2-2-2-3--3-3-3-|
||o-3--3-3-3----------|-2--2-2-2-3--3-3-3-|
||--------------------|-0--0-0-0-1--1-1-1-|


  C        Dm         Em  F   Em  G7    C        Dm
  Q.     E Q.     E   Q   Q   Q   Q     Q.     E Q.     E
|-------------------|-----------------|--------------------|
|-------------------|-----------------|--------------------|
|-0------0-2------2-|-0---------------|--------------------|
|-------------------|-----3---2---0---|----------0------0--|
|-------------------|-----------------|-3------3-----------|
|-------------------|-----------------|--------------------|
|
| E  E E E E  E E E   E E E E E E E E   E  E E E E  E E E
|-0--0-0-0-1--1-1-1-|-0-0-1-1-0-0-1-1-|-0--0-0-0-1--1-1-1--|
|-1--1-1-1-3--3-3-3-|-0-0-1-1-0-0-0-0-|-1--1-1-1-3--3-3-3--|
|-0--0-0-0-2--2-2-2-|-0-0-2-2-0-0-0-0-|-0--0-0-0-2--2-2-2--|
|-2--2-2-2-0--0-0-0-|-2-2-3-3-2-2-0-0-|-2--2-2-2-0--0-0-0--|
|-3--3-3-3----------|-2-2-3-3-2-2-2-2-|-3--3-3-3-----------|
|-------------------|-0-0-1-1-0-0-3-3-|--------------------|


  Em       F          C        Dm         Em  F   Em  G7    C       Dm
  Q.     E Q.     E   Q.     E Q.     E   Q   Q   Q   Q     Q   Q   Q   Q
|-------------------|-------------------|-----------------|-----------------|
|-------------------|-------------------|-----------------|-----------------|
|-------------------|-0------0-2------2-|-0---------------|-----------------|
|-2------2-3------3-|-------------------|-----3---2---0---|---------0---0---|
|-------------------|-------------------|-----------------|-3---3-----------|
|-------------------|-------------------|-----------------|-----------------|
|
| E  E E E E  E E E   E  E E E E  E E E   E E E E E E E E   E E E E E E E E
|-0--0-0-0-1--1-1-1-|-0--0-0-0-1--1-1-1-|-0-0-1-1-0-0-1-1-|-0-0-0-0-1-1-1-1-|
|-0--0-0-0-1--1-1-1-|-1--1-1-1-3--3-3-3-|-0-0-1-1-0-0-0-0-|-1-1-1-1-3-3-3-3-|
|-0--0-0-0-2--2-2-2-|-0--0-0-0-2--2-2-2-|-0-0-2-2-0-0-0-0-|-0-0-0-0-2-2-2-2-|
|-2--2-2-2-3--3-3-3-|-2--2-2-2-0--0-0-0-|-2-2-3-3-2-2-0-0-|-2-2-2-2-0-0-0-0-|
|-2--2-2-2-3--3-3-3-|-3--3-3-3----------|-2-2-3-3-2-2-2-2-|-3-3-3-3---------|
|-0--0-0-0-1--1-1-1-|-------------------|-0-0-1-1-0-0-3-3-|-----------------|


  Em      Dm        G7      F         C                         Dm
  Q   Q   Q   Q     H       H         W                 Q   Q   Q   Q
|-----------------|-----------------|-----------------|-----------------|
|-----------------|-----------------|-----------------|-----------------|
|-----------------|-----------------|-----------------|-----------------|
|-2---2---0---0---|-----------------|-----------------|---------0---0---|
|-----------------|---------0-------|-3---------------|-3---3-----------|
|-----------------|-3---------------|-----------------|-----------------|
|
| E E E E E E E E   E E E E E E E E   E E E E E E E E   E E E E E E E E
|-0-0-0-0-1-1-1-1-|-1-1-1-1-1-1-1-1-|-0-0-0-0-0-0-0-0-|-0-0-0-0-1-1-1-1-|
|-0-0-0-0-3-3-3-3-|-0-0-0-0-1-1-1-1-|-1-1-1-1-1-1-1-1-|-1-1-1-1-3-3-3-3-|
|-0-0-0-0-2-2-2-2-|-0-0-0-0-2-2-2-2-|-0-0-0-0-0-0-0-0-|-0-0-0-0-2-2-2-2-|
|-2-2-2-2-0-0-0-0-|-0-0-0-0-3-3-3-3-|-2-2-2-2-2-2-2-2-|-2-2-2-2-0-0-0-0-|
|-2-2-2-2---------|-2-2-2-2-3-3-3-3-|-3-3-3-3-3-3-3-3-|-3-3-3-3---------|
|-0-0-0-0---------|-3-3-3-3-1-1-1-1-|-----------------|-----------------|


  Em      Dm        G7      F         C                  F
                                                      Gtr III
  Q   Q   Q   Q     H       H         W                   Q    Q   Q   Q
|-----------------|-----------------|-----------------||-----------8---8---|
|-----------------|-----------------|-----------------||-10---10-----------|
|-----------------|-----------------|-----------------||-------------------|
|-2---2---0---0---|-----------------|-----------------||-------------------|
|-----------------|---------0-------|-3---------------||-------------------|
|-----------------|-3---------------|-----------------||-------------------|
|
| E E E E E E E E   E E E E E E E E   E E E E E E E E     E E  E E E E E E
|-0-0-0-0-1-1-1-1-|-1-1-1-1-1-1-1-1-|-0-0-0-0-0-0-0-0-||--1-1--1-1-1-1-1-1-|
|-0-0-0-0-3-3-3-3-|-0-0-0-0-1-1-1-1-|-1-1-1-1-1-1-1-1-||--1-1--1-1-1-1-1-1-|
|-0-0-0-0-2-2-2-2-|-0-0-0-0-2-2-2-2-|-0-0-0-0-0-0-0-0-||--2-2--2-2-2-2-2-2-|
|-2-2-2-2-0-0-0-0-|-0-0-0-0-3-3-3-3-|-2-2-2-2-2-2-2-2-||--3-3--3-3-3-3-3-3-|
|-2-2-2-2---------|-2-2-2-2-3-3-3-3-|-3-3-3-3-3-3-3-3-||--3-3--3-3-3-3-3-3-|
|-0-0-0-0---------|-3-3-3-3-1-1-1-1-|-----------------||--1-1--1-1-1-1-1-1-|


  Em                 F                   G7  Dm7  Em  G7    C       Dm
                                                          Gtr I
  E  E Q   H          Q    Q   Q   Q     E E  Q   H         Q   Q   Q   Q
|------------------|-----------8---8---|-7-7--------------|-----------------|
|-8--------8-------|-10---10-----------|-----10---8-------|-----------------|
|---10-9-----------|-------------------|------------------|-----------------|
|------------------|-------------------|------------------|---------0---0---|
|------------------|-------------------|------------------|-3---3-----------|
|------------------|-------------------|------------------|-----------------|
|
| E  E E E E E E E    E E  E E E E E E   E E  E E E E E E   E E E E E E E E
|-0--0-0-0-0-0-0-0-|--1-1--1-1-1-1-1-1-|-1-1--1-1-0-0-1-1-|-0-0-0-0-1-1-1-1-|
|-0--0-0-0-0-0-0-0-|--1-1--1-1-1-1-1-1-|-0-0--1-1-0-0-0-0-|-1-1-1-1-3-3-3-3-|
|-0--0-0-0-0-0-0-0-|--2-2--2-2-2-2-2-2-|-0-0--2-2-0-0-0-0-|-0-0-0-0-2-2-2-2-|
|-2--2-2-2-2-2-2-2-|--3-3--3-3-3-3-3-3-|-0-0--0-0-2-2-0-0-|-2-2-2-2-0-0-0-0-|
|-2--2-2-2-2-2-2-2-|--3-3--3-3-3-3-3-3-|-2-2------2-2-2-2-|-3-3-3-3---------|
|-0--0-0-0-0-0-0-0-|--1-1--1-1-1-1-1-1-|-3-3------0-0-3-3-|-----------------|


  Em      Dm        G7      F         C       F7         C        F7
                                          Gtr III             Gtr I
  Q   Q   Q   Q     H       H         Q   Q    E E E E    Q   Q    E E E E
|-----------------|-----------------|-----8------------|------8------------|
|-----------------|-----------------|---------10-8-----|----------10-8-----|
|-----------------|-----------------|--------------8-9-|---------------8-9-|
|-2---2---0---0---|-----------------|------------------|-10----------------|
|-----------------|---------0-------|-3----------------|-------------------|
|-----------------|-3---------------|------------------|-------------------|
|
| E E E E E E E E   E E E E E E E E   E E E E  E E E E    E E E E  E E E E
|-0-0-0-0-1-1-1-1-|-1-1-1-1-1-1-1-1-|-0-0-0-0--1-1-1-1-|--0-0-0-0--1-1-1-1-|
|-0-0-0-0-3-3-3-3-|-0-0-0-0-1-1-1-1-|-1-1-1-1--1-1-1-1-|--1-1-1-1--1-1-1-1-|
|-0-0-0-0-2-2-2-2-|-0-0-0-0-2-2-2-2-|-0-0-0-0--2-2-2-2-|--0-0-0-0--2-2-2-2-|
|-2-2-2-2-0-0-0-0-|-0-0-0-0-3-3-3-3-|-2-2-2-2--1-1-1-1-|--2-2-2-2--1-1-1-1-|
|-2-2-2-2---------|-2-2-2-2-3-3-3-3-|-3-3-3-3--3-3-3-3-|--3-3-3-3--3-3-3-3-|
|-0-0-0-0---------|-3-3-3-3-1-1-1-1-|----------1-1-1-1-|-----------1-1-1-1-|


  C        F7         C                   C7                   F
       Gtr III             Gtr I                        Gtr I
   Q   Q    E E E E    Q   Q    E E E E    H.           E E    Q   Q   Q   Q
|------8------------|------8------------|-------------------||-----------------|
|----------10-8-----|----------10-8-----|-------------------||---------1---1---|
|---------------8-7-|---------------8-7-|-----------------0-||-2---2-----------|
|-10----------------|-10----------------|-10----------------||-----------------|
|-------------------|-------------------|-------------------||-----------------|
|-------------------|-------------------|-------------------||-----------------|
|
|  E E E E  E E E E    E E E E  E E E E    E  E E E E E E E    E E E E E E E E
|--0-0-0-0--1-1-1-1-|--0-0-0-0--0-0-0-0-|--0--0-0-0-0-0-0-0-||-1-1-1-1-1-1-1-1-|
|--1-1-1-1--1-1-1-1-|--1-1-1-1--1-1-1-1-|--1--1-1-1-1-1-1-1-||-1-1-1-1-1-1-1-1-|
|--0-0-0-0--2-2-2-2-|--0-0-0-0--0-0-0-0-|--3--3-3-3-3-3-3-3-||-2-2-2-2-2-2-2-2-|
|--2-2-2-2--1-1-1-1-|--2-2-2-2--2-2-2-2-|--2--2-2-2-2-2-2-2-||-3-3-3-3-3-3-3-3-|
|--3-3-3-3--3-3-3-3-|--3-3-3-3--3-3-3-3-|--3--3-3-3-3-3-3-3-||-3-3-3-3-3-3-3-3-|
|-----------1-1-1-1-|-------------------|-------------------||-1-1-1-1-1-1-1-1-|


                    C                                   Dm
  Q   Q   Q   E E   Q   Q   Q   Q     Q   Q   Q   E E   Q   Q   Q   Q
|-----------------|-----------------|-----------------|-----------------|
|-----------------|---------1---1---|-----------------|-----------------|
|---------2---2-1-|-0---0-----------|---------0---0---|---------2---2---|
|-3---3-----------|-----------------|-2---2---------4-|-3---3-----------|
|-----------------|-----------------|-----------------|-----------------|
|-----------------|-----------------|-----------------|-----------------|
|
| E E E E E E E E   E E E E E E E E   E E E E E E E E   E E E E E E E E
|-1-1-1-1-1-1-1-1-|-0-0-0-0-0-0-0-0-|-0-0-0-0-0-0-0-0-|-1-1-1-1-1-1-1-1-|
|-1-1-1-1-1-1-1-1-|-1-1-1-1-1-1-1-1-|-1-1-1-1-1-1-1-1-|-3-3-3-3-3-3-3-3-|
|-2-2-2-2-2-2-2-2-|-0-0-0-0-0-0-0-0-|-0-0-0-0-0-0-0-0-|-2-2-2-2-2-2-2-2-|
|-3-3-3-3-3-3-3-3-|-2-2-2-2-2-2-2-2-|-2-2-2-2-2-2-2-2-|-0-0-0-0-0-0-0-0-|
|-3-3-3-3-3-3-3-3-|-3-3-3-3-3-3-3-3-|-3-3-3-3-3-3-3-3-|-----------------|
|-1-1-1-1-1-1-1-1-|-----------------|-----------------|-----------------|


                    C7                                   F
  Q   Q   H         Q   H       Q     H.           E E   Q   Q   Q   Q
|-----------------|-----------------|------------------|-----------------|
|-----------------|-----------------|------------------|---------1---1---|
|-----------------|-----0-----------|-0--------------1-|-2---2-----------|
|-0---0---3-------|-2-----------2---|------------------|-----------------|
|-----------------|-----------------|------------------|-----------------|
|-----------------|-----------------|------------------|-----------------|
|
| E E E E E E E E   E E E E E E E E   E  E E E E E E E   E E E E E E E E
|-1-1-1-1-1-1-1-1-|-0-0-0-0-0-0-0-0-|-0--0-0-0-0-0-0-0-|-1-1-1-1-1-1-1-1-|
|-3-3-3-3-3-3-3-3-|-1-1-1-1-1-1-1-1-|-1--1-1-1-1-1-1-1-|-1-1-1-1-1-1-1-1-|
|-2-2-2-2-2-2-2-2-|-3-3-3-3-3-3-3-3-|-3--3-3-3-3-3-3-3-|-2-2-2-2-2-2-2-2-|
|-0-0-0-0-0-0-0-0-|-2-2-2-2-2-2-2-2-|-2--2-2-2-2-2-2-2-|-3-3-3-3-3-3-3-3-|
|-----------------|-3-3-3-3-3-3-3-3-|-3--3-3-3-3-3-3-3-|-3-3-3-3-3-3-3-3-|
|-----------------|-----------------|------------------|-1-1-1-1-1-1-1-1-|


                    C                                   Dm
  Q   Q   Q   E E   Q   Q   Q   Q     Q   Q   Q   E E   Q   Q   Q   Q
|-----------------|-----------------|-----------------|-----------------|
|-----------------|---------1---1---|-----------------|-----------------|
|---------2---2-1-|-0---0-----------|---------0---0---|---------2---2---|
|-3---3-----------|-----------------|-2---2---------4-|-3---3-----------|
|-----------------|-----------------|-----------------|-----------------|
|-----------------|-----------------|-----------------|-----------------|
|
| E E E E E E E E   E E E E E E E E   E E E E E E E E   E E E E E E E E
|-1-1-1-1-1-1-1-1-|-0-0-0-0-0-0-0-0-|-0-0-0-0-0-0-0-0-|-1-1-1-1-1-1-1-1-|
|-1-1-1-1-1-1-1-1-|-1-1-1-1-1-1-1-1-|-1-1-1-1-1-1-1-1-|-3-3-3-3-3-3-3-3-|
|-2-2-2-2-2-2-2-2-|-0-0-0-0-0-0-0-0-|-0-0-0-0-0-0-0-0-|-2-2-2-2-2-2-2-2-|
|-3-3-3-3-3-3-3-3-|-2-2-2-2-2-2-2-2-|-2-2-2-2-2-2-2-2-|-0-0-0-0-0-0-0-0-|
|-3-3-3-3-3-3-3-3-|-3-3-3-3-3-3-3-3-|-3-3-3-3-3-3-3-3-|-----------------|
|-1-1-1-1-1-1-1-1-|-----------------|-----------------|-----------------|


                    Em                Dm          G7         C       Dm
                                      |---3---|
  Q   Q   H         H       H         Q   Q   Q   H          Q   Q   Q   Q
|-----------------|-----------------|---------------------||-----------------|
|-----------------|-----------------|---------------------||-----------------|
|-----------------|---------0-------|-----0---2---0-------||-----------------|
|-0---0---3-------|-2---------------|-3-------------------||---------0---0---|
|-----------------|-----------------|---------------------||-3---3-----------|
|-----------------|-----------------|---------------------||-----------------|
|
| E E E E E E E E   E E E E E E E E   E E   E   E E E E E    E E E E E E E E
|-1-1-1-1-1-1-1-1-|-0-0-0-0-0-0-0-0-|-1-1---1---1-1-1-1-1-||-0-0-0-0-1-1-1-1-|
|-3-3-3-3-3-3-3-3-|-0-0-0-0-0-0-0-0-|-3-3---3---3-0-0-0-0-||-1-1-1-1-3-3-3-3-|
|-2-2-2-2-2-2-2-2-|-0-0-0-0-0-0-0-0-|-2-2---2---2-0-0-0-0-||-0-0-0-0-2-2-2-2-|
|-0-0-0-0-0-0-0-0-|-2-2-2-2-2-2-2-2-|-0-0---0---0-0-0-0-0-||-2-2-2-2-0-0-0-0-|
|-----------------|-2-2-2-2-2-2-2-2-|-------------2-2-2-2-||-3-3-3-3---------|
|-----------------|-0-0-0-0-0-0-0-0-|-------------3-3-3-3-||-----------------|


  Em      Dm        G7      F         C                         Dm
  Q   Q   Q   Q     H       H         W                 Q   Q   Q   Q
|-----------------|-----------------|-----------------|-----------------|
|-----------------|-----------------|-----------------|-----------------|
|-----------------|-----------------|-----------------|-----------------|
|-2---2---0---0---|-----------------|-----------------|---------0---0---|
|-----------------|---------0-------|-3---------------|-3---3-----------|
|-----------------|-3---------------|-----------------|-----------------|
|
| E E E E E E E E   E E E E E E E E   E E E E E E E E   E E E E E E E E
|-0-0-0-0-1-1-1-1-|-1-1-1-1-1-1-1-1-|-0-0-0-0-0-0-0-0-|-0-0-0-0-1-1-1-1-|
|-0-0-0-0-3-3-3-3-|-0-0-0-0-1-1-1-1-|-1-1-1-1-1-1-1-1-|-1-1-1-1-3-3-3-3-|
|-0-0-0-0-2-2-2-2-|-0-0-0-0-2-2-2-2-|-0-0-0-0-0-0-0-0-|-0-0-0-0-2-2-2-2-|
|-2-2-2-2-0-0-0-0-|-0-0-0-0-3-3-3-3-|-2-2-2-2-2-2-2-2-|-2-2-2-2-0-0-0-0-|
|-2-2-2-2---------|-2-2-2-2-3-3-3-3-|-3-3-3-3-3-3-3-3-|-3-3-3-3---------|
|-0-0-0-0---------|-3-3-3-3-1-1-1-1-|-----------------|-----------------|


  Em      Dm        G7      F         C       F7         C        F7
                                          Gtr III             Gtr I
  Q   Q   Q   Q     H       H         Q   Q    E E E E    Q   Q    E E E E
|-----------------|-----------------|-----8------------|------8------------|
|-----------------|-----------------|---------10-8-----|----------10-8-----|
|-----------------|-----------------|--------------8-9-|---------------8-9-|
|-2---2---0---0---|-----------------|------------------|-10----------------|
|-----------------|---------0-------|-3----------------|-------------------|
|-----------------|-3---------------|------------------|-------------------|
|
| E E E E E E E E   E E E E E E E E   E E E E  E E E E    E E E E  E E E E
|-0-0-0-0-1-1-1-1-|-1-1-1-1-1-1-1-1-|-0-0-0-0--1-1-1-1-|--0-0-0-0--1-1-1-1-|
|-0-0-0-0-3-3-3-3-|-0-0-0-0-1-1-1-1-|-1-1-1-1--1-1-1-1-|--1-1-1-1--1-1-1-1-|
|-0-0-0-0-2-2-2-2-|-0-0-0-0-2-2-2-2-|-0-0-0-0--2-2-2-2-|--0-0-0-0--2-2-2-2-|
|-2-2-2-2-0-0-0-0-|-0-0-0-0-3-3-3-3-|-2-2-2-2--1-1-1-1-|--2-2-2-2--1-1-1-1-|
|-2-2-2-2---------|-2-2-2-2-3-3-3-3-|-3-3-3-3--3-3-3-3-|--3-3-3-3--3-3-3-3-|
|-0-0-0-0---------|-3-3-3-3-1-1-1-1-|----------1-1-1-1-|-----------1-1-1-1-|


  C        F7         C                   G7                      C
       Gtr III             Gtr I
   Q   Q    E E E E    Q   Q    E E E E    H.            +E  E    W
|------8------------|------8------------|----------------------||-------------|
|----------10-8-----|----------10-8-----|----------------------||-------------|
|---------------8-7-|---------------8-7-|----------------------||-------------|
|-10----------------|-10----------------|----------------------||-------------|
|-------------------|-------------------|-10------------(10)---||-------------|
|-------------------|-------------------|----------------------||-------------|
|
|  E E E E  E E E E    E E E E  E E E E    E  E E E E E   E  E    E E Q  H
|--0-0-0-0--1-1-1-1-|--0-0-0-0--0-0-0-0-|--1--1-1-1-1-1---1----||-0-----------|
|--1-1-1-1--1-1-1-1-|--1-1-1-1--1-1-1-1-|--0--0-0-0-0-0---0----||-1-----------|
|--0-0-0-0--2-2-2-2-|--0-0-0-0--0-0-0-0-|--0--0-0-0-0-0---0----||-0-----------|
|--2-2-2-2--1-1-1-1-|--2-2-2-2--2-2-2-2-|--0--0-0-0-0-0---0----||-2-----------|
|--3-3-3-3--3-3-3-3-|--3-3-3-3--3-3-3-3-|--2--2-2-2-2-2---2----||-3-----------|
|-----------1-1-1-1-|-------------------|--3--3-3-3-3-3---3----||-------------|


  N.C.
  W          W          W          W
|----------|----------|----------|------|
|----------|----------|----------|------|
|----------|----------|----------|------|
|----------|----------|----------|------|
|----------|----------|----------|------|
|----------|----------|----------|------|


  W          Q  Q  Q  Q    Q  Q  Q  Q    Q  Q  Q  Q
|----------|----3--5--3--|----3--5--3--|----3--5--3--|
|----------|----5--6--5--|----5--6--5--|----5--6--5--|
|----------|-------------|-------------|-------------|
|----------|-------------|-------------|-------------|
|----------|-3-----------|-3-----------|-3-----------|
|----------|-------------|-------------|-------------|


                  C        Dm         Em       F
  Q  Q  Q  Q      Q.     E Q.     E   Q.     E Q.     E
|----3--5--3---||-------------------|-------------------|
|----5--6--5--o||-------------------|-------------------|
|--------------||-------------------|-------------------|
|--------------||----------0------0-|-2------2-3------3-|
|-3-----------o||-3------3----------|-------------------|
|--------------||-------------------|-------------------|
|
| Gtr II
| W               E  E E E E  E E E   E  E E E E  E E E
|--------------||-0--0-0-0-1--1-1-1-|-0--0-0-0-1--1-1-1-|
|-------------o||-1--1-1-1-3--3-3-3-|-0--0-0-0-1--1-1-1-|
|--------------||-0--0-0-0-2--2-2-2-|-0--0-0-0-2--2-2-2-|
|--------------||-2--2-2-2-0--0-0-0-|-2--2-2-2-3--3-3-3-|
|-------------o||-3--3-3-3----------|-2--2-2-2-3--3-3-3-|
|--------------||-------------------|-0--0-0-0-1--1-1-1-|


  C        Dm         Em  F   Em  G7    C        Dm
  Q.     E Q.     E   Q   Q   Q   Q     Q.     E Q.     E
|-------------------|-----------------|-------------------|
|-------------------|-----------------|-------------------|
|-0------0-2------2-|-0---------------|-------------------|
|-------------------|-----3---2---0---|-------------------|
|-------------------|-----------------|-3------3-5------5-|
|-------------------|-----------------|-------------------|
|
| E  E E E E  E E E   E E E E E E E E   E  E E E E  E E E
|-0--0-0-0-1--1-1-1-|-0-0-1-1-0-0-1-1-|-0--0-0-0-1--1-1-1-|
|-1--1-1-1-3--3-3-3-|-0-0-1-1-0-0-0-0-|-1--1-1-1-3--3-3-3-|
|-0--0-0-0-2--2-2-2-|-0-0-2-2-0-0-0-0-|-0--0-0-0-2--2-2-2-|
|-2--2-2-2-0--0-0-0-|-2-2-3-3-2-2-0-0-|-2--2-2-2-0--0-0-0-|
|-3--3-3-3----------|-2-2-3-3-2-2-2-2-|-3--3-3-3----------|
|-------------------|-0-0-1-1-0-0-3-3-|-------------------|


  Em       F          C        Dm         Em  F   Em  G7    C       Dm
  Q.     E Q.     E   Q.     E Q.     E   Q   Q   Q   Q     Q   Q   Q   Q
|-------------------|-------------------|-----------------|-----------------|
|-------------------|-------------------|-----------------|-----------------|
|-------------------|-0------0-2------2-|-0---------------|-----------------|
|-2------2-3------3-|-------------------|-----3---2---0---|---------0---0---|
|-------------------|-------------------|-----------------|-3---3-----------|
|-------------------|-------------------|-----------------|-----------------|
|
| E  E E E E  E E E   E  E E E E  E E E   E E E E E E E E   E E E E E E E E
|-0--0-0-0-1--1-1-1-|-0--0-0-0-1--1-1-1-|-0-0-1-1-0-0-1-1-|-0-0-0-0-1-1-1-1-|
|-0--0-0-0-1--1-1-1-|-1--1-1-1-3--3-3-3-|-0-0-1-1-0-0-0-0-|-1-1-1-1-3-3-3-3-|
|-0--0-0-0-2--2-2-2-|-0--0-0-0-2--2-2-2-|-0-0-2-2-0-0-0-0-|-0-0-0-0-2-2-2-2-|
|-2--2-2-2-3--3-3-3-|-2--2-2-2-0--0-0-0-|-2-2-3-3-2-2-0-0-|-2-2-2-2-0-0-0-0-|
|-2--2-2-2-3--3-3-3-|-3--3-3-3----------|-2-2-3-3-2-2-2-2-|-3-3-3-3---------|
|-0--0-0-0-1--1-1-1-|-------------------|-0-0-1-1-0-0-3-3-|-----------------|


  Em      Dm        G7      F         C                         Dm
  Q   Q   Q   Q     H       H         W                 Q   Q   Q   Q
|-----------------|-----------------|-----------------|-----------------|
|-----------------|-----------------|-----------------|-----------------|
|-----------------|-----------------|-----------------|-----------------|
|-2---2---0---0---|-----------------|-----------------|---------0---0---|
|-----------------|---------0-------|-3---------------|-3---3-----------|
|-----------------|-3---------------|-----------------|-----------------|
|
| E E E E E E E E   E E E E E E E E   E E E E E E E E   E E E E E E E E
|-0-0-0-0-1-1-1-1-|-1-1-1-1-1-1-1-1-|-0-0-0-0-0-0-0-0-|-0-0-0-0-1-1-1-1-|
|-0-0-0-0-3-3-3-3-|-0-0-0-0-1-1-1-1-|-1-1-1-1-1-1-1-1-|-1-1-1-1-3-3-3-3-|
|-0-0-0-0-2-2-2-2-|-0-0-0-0-2-2-2-2-|-0-0-0-0-0-0-0-0-|-0-0-0-0-2-2-2-2-|
|-2-2-2-2-0-0-0-0-|-0-0-0-0-3-3-3-3-|-2-2-2-2-2-2-2-2-|-2-2-2-2-0-0-0-0-|
|-2-2-2-2---------|-2-2-2-2-3-3-3-3-|-3-3-3-3-3-3-3-3-|-3-3-3-3---------|
|-0-0-0-0---------|-3-3-3-3-1-1-1-1-|-----------------|-----------------|


  Em      Dm        G7      F         C     Em11
  Q   Q   Q   Q     H       H         Q  Q   H      +W
|-----------------|-----------------|-------^7----|-(7)----*|
|-----------------|-----------------|-------^8----|-(8)----*|
|-----------------|-----------------|-------^7----|-(7)----*|
|-2---2---0---0---|-----------------|-------^7----|-(7)----*|
|-----------------|---------0-------|-3-----^7----|-(7)----*|
|-----------------|-3---------------|-------------|--------*|
|
| E E E E E E E E   E E E E E E E E   Q  Q   H      +W
|-0-0-0-0-1-1-1-1-|-1-1-1-1-1-1-1-1-|-0-----^7----|-(7)----*|
|-0-0-0-0-3-3-3-3-|-0-0-0-0-1-1-1-1-|-1-----^8----|-(8)----*|
|-0-0-0-0-2-2-2-2-|-0-0-0-0-2-2-2-2-|-0-----^7----|-(7)----*|
|-2-2-2-2-0-0-0-0-|-0-0-0-0-3-3-3-3-|-2-----^7----|-(7)----*|
|-2-2-2-2---------|-2-2-2-2-3-3-3-3-|-3-----^7----|-(7)----*|
|-0-0-0-0---------|-3-3-3-3-1-1-1-1-|-------------|--------*|


Duration Legend
---------------
W - whole; H - half; Q - quarter; E - 8th; S - 16th; T - 32nd; X - 64th; a - acciaccatura
+ - note tied to previous; . - note dotted; .. - note double dotted
Uncapitalized letters represent notes that are staccato (1/2 duration)
Irregular groupings are notated above the duration line
Duration letters will always appear directly above the note/fret number it represents the
duration for.  Duration letters with no fret number below them represent rests.  Multi-
bar rests are notated in the form Wxn, where n is the number of bars to rest for.  Low
melody durations appear below the staff

Tablature Legend
----------------
 h   - hammer-on
 p   - pull-off
 b   - bend
 pb  - pre-bend
 r   - bend release (if no number after the r, then release immediately)
 /\  - slide into or out of (from/to "nowhere")
 s   - legato slide
 S   - shift slide
  - natural harmonic
[n]  - artificial harmonic
n(n) - tapped harmonic
 ~   - vibrato
 tr  - trill
 T   - tap
 TP  - trem. picking
 PM  - palm muting
\n/  - tremolo bar dip; n = amount to dip
 \n  - tremolo bar down
 n/  - tremolo bar up
/n\  - tremolo bar inverted dip
 =   - hold bend; also acts as connecting device for hammers/pulls
 <>  - volume swell (louder/softer)
 x   - on rhythm slash represents muted slash
 o   - on rhythm slash represents single note slash

Misc Legend
-----------
 |  - bar
||  - double bar
||o - repeat start
o|| - repeat end
*|  - double bar (ending)
 :  - bar (freetime)
 $  - Segno
 &  - Coda
Tempo markers -  = BPM(8/16=s8/s16), where s8 = swing 8ths, s16 = swing 16ths
Добавлено: 09.07.2015
Другие материалы по этой песне:

Страница создана 19.10.2013
http://primanota.ru/shadows/stars-fell-on-stockton-chords.htm
Привет, Гость.
Предлагаем пройти революционный курс по гитаре.
Подарок от PrimaNota.Ru, забирай!