PrimaNota.ru - самый крупный в мире бесплатный архив песенных текстов, аккордов, табулатур и нот


Shadows - Shazan studio version - таба, видео

Регистрация Запомнить меня
Войти через:  Facebook Google Twitter Vk Yandex Mail.ru

Shadows - Shazan studio version - таба, видео

Печатать
Просмотров: 51
Author/Artist: The Shadows (Eddy/Hazlewood)
Title: Shazam
Transcribed by: Goran
Email: shadows@pc.nu

-|------------------|------------------|----0----3----0--|------------------|-
-|------------------|------------------|-----------------|3----0------------|-
-|------------------|------------------|-----------------|--------3---2---0-|-
-|------------------|------------------|-----------------|------------------|-
-|------------------|0----0-------0----|-----------------|------------------|-
-|0---------0----0--|------------------|0----------------|------------------|-
                                                                              

-|------------------|------------------|-----------------|------------------|-
-|------------------|------------------|-----------------|------5-----------|-
-|------------------|------------------|-------------2---|4--------3---2--0-|-
-|------------------|------------------|2----4---5-------|------------------|-
-|------------------|0----0-------0----|-----------------|------------------|-
-|0---------0-----0-|------------------|-----------------|------------------|-
                                                                              

-|------------------|------------------|----0-----3----0-|------------------|-
-|------------------|------------------|-----------------|3----0------------|-
-|------------------|------------------|-----------------|---------3---2--0-|-
-|------------------|------------------|-----------------|------------------|-
-|------------------|0----0-------0----|-----------------|------------------|-
-|-0-------0-----0--|------------------|0----------------|------------------|-
                                                                              

-|------------------|------------------|-------------|----------------------|-
-|------------------|------------------|-------------|----------------------|-
-|------------------|------------------|-------------|----------------------|-
-|------------------|------------------|-------------|----------------------|-
-|------------------|0----0-------0----|-------------|----------------------|-
-|0--------0------0-|------------------|0-5/7-0-5/7-0|5/7-0-0-0-5/7-5/7-----|-
                                                                              

-|------------------|------------------|-----------------|------------------|-
-|------------------|------------------|-----------------|------------------|-
-|------------------|------------------|-----------------|------------------|-
-|------------------|------------------|-----------------|------------------|-
-|------------------|--2------4-----2--|-----------------|---2-----4-----2--|-
-|0-------0---------|------------------|4----0-----------|------------------|-
                                                                              

-|------------------|------------------|-----------------|------------------|-
-|------------------|------------------|-----------------|------------------|-
-|------------------|------------------|-----------------|------------------|-
-|4-------4---------|---------------2--|-----------------|------------------|-
-|------------------|----2----4--------|4-------2--------|---2----4----2----|-
-|------------------|------------------|-----------------|------------------|-
                                                                              

-|------------------|------------------|-----------------|------------------|-
-|------------------|------------------|-----------------|------------------|-
-|------------------|------------------|-----------------|------------------|-
-|-2------2---------|-4---2------------|-----------------|------------------|-
-|------------------|----------4---2---|-0---------------|---------0----1---|-
-|------------------|------------------|-----------------|------------------|-
                                                                              

-|------------------|------------------|------------------------------------|-
-|------------------|------------------|------------------------------------|-
-|------------------|------------------|------------------------------------|-
-|------------------|------------------|------------------------------------|-
-|-1/2-2-2-2-2-2-2--|-2----------------|---------2--------------------------|-
-|------------------|-------------2b-r-|0-----------------------------------|-
                                                                              

-|------------------|------------------|-------------------|----------------|-
-|------------------|------------------|-------------------|----------------|-
-|------------------|------------------|-------------------|----------------|-
-|------------------|------------------|-------------------|----------------|-
-|------------------|-0---0---------0--|-------------------|----------------|-
-|-0------0----0----|------------------|-0-----------------|----------------|-
                                            bass  solo --------------------   

--|------------------|-----------------|-------------------|----------------|-
--|------------------|-----------------|-------------------|----------------|-
--|------------------|-----------------|-------------------|----------------|-
--|------------------|-----------------|-------------------|----------------|-
--|------------------|-0---0---------0-|-------------------|----------------|-
--|-0------0----0----|-----------------|-0-----------------|----------------|-
                                           drum solo----------------------    

-|-------------------|-----------------|-0------0------0---|-0----0---0-----|-
-|-------------------|-----------------|-0------0------0---|-3----2---0-----|-
-|-------------------|-----------------|-1------1------1---|-2----2---1-----|-
-|-------------------|-----------------|-2------2------2---|-2----2---2-----|-
-|-------------------|-0--0------0-----|-2------2------2---|-0----0---2-----|-
-|-0-------0----0----|-----------------|-0------0------0---|-0----0---0-----|-
                                         Rhytm solo (E, E, E Asus,A,E)        

-|-------------------|-----------------|----------------|-------------------|-
-|-------------------|-----------------|----------------|-------------------|-
-|-------------------|-----------------|----------------|-------------------|-
-|-------------------|-----------------|----------------|-------------------|-
-|-------------------|-----------------|----------------|-------------------|-
-|-0--------0----0---|--0--0------0----|0--5/7-0-5/7--0-|-5/7-0-0-0-5/7-5/7-|-
                                                                              

-|-------------------|----------------|------------------|------------------|-
-|-------------------|----------------|------------------|------------------|-
-|-------------------|----------------|------------------|------------------|-
-|-------------------|----------------|------------------|------------------|-
-|-------------------|---2---4----2---|------------------|----2-----4----2--|-
-|-0--------0--------|----------------|-4-----0----------|------------------|-
                                                                              

-|-------------------|----------------|------------------|------------------|-
-|-------------------|----------------|------------------|------------------|-
-|-------------------|----------------|------------------|------------------|-
-|-4-------4---------|-------------2--|------------------|------------------|-
-|-------------------|----2---4-------|-4-----2----------|-----2-----4----2-|-
-|-------------------|----------------|------------------|------------------|-
                                                                              

-|------------------|-----------------|------------------|------------------|-
-|------------------|-----------------|------------------|------------------|-
-|------------------|-----------------|------------------|------------------|-
-|--2------2--------|-4----2-----4--2-|------------------|------------------|-
-|------------------|-----------------|-0----------------|--------0-----1---|-
-|------------------|-----------------|------------------|------------------|-
                                                                              

-|------------------|------------------|------------------------------------|-
-|------------------|------------------|------------------------------------|-
-|------------------|------------------|------------------------------------|-
-|------------------|------------------|------------------------------------|-
-|-1/2-2-2-2-2-2-2--|-2----------------|------------------2-----------------|-
-|------------------|-------------2b-r-|0-----------------------------------|-
                                                                              

-|-----------------|-------------------|----10-------9---|-7---------------|--
-|-----------------|-------------------|-----9-------9---|-8b--------------|--
-|-----------------|-------------------|-----------------|-----9--7--------|--
-|-----------------|-------------------|-----------------|------------9----|--
-|-----------------|-0---0-------0-----|-----------------|-----------------|--
-|-0------0------0-|-------------------|-0---------------|-----------------|--
                                        ( )                                   

-|-----------------|-------------------|---12-------12---|------12--------12|-
-|-----------------|-------------------|-----15b---------|15b--------15b----|-
-|-----------------|-------------------|-----------------|------------------|-
-|-----------------|-------------------|-----------------|------------------|-
-|-----------------|-0---0--------0----|-----------------|------------------|-
-|-0-------0-----0-|-------------------|-0---------------|------------------|-
                                        ( ) hold bend up to (17) throughout   

-|-----------------|-------------------|----7------------|-----------------|--
-|-----------------|-------------------|----8b-----------|-----------------|--
-|-----------------|-------------------|--------------9--|-7---------------|--
-|-----------------|-------------------|-----------------|----9--7---------|--
-|-----------------|-0---0--------0----|-----------------|----------10--7--|--
-|-0-------0------0|-------------------|-0---------------|-----------------|--
                                        ( )                                   

-|-----------------|-------------------|-----------------|------------------|-
-|-----------------|-------------------|-----------------|------------------|-
-|-----------------|-------------------|-----------------|------------------|-
-|-----------------|-------------------|-----------------|------------------|-
-|-----------------|-0---0---------0---|-----------------|------------------|-
-|-0-------0-----0-|-------------------|-0--5/7-0-5/7--0-|5/7--0--5/7--0----|-
                                                                              

-|-----------------|-------------------|-----------------|------------------|-
-|-----------------|-------------------|-----------------|------------------|-
-|-----------------|-------------------|-----------------|------------------|-
-|-----------------|-------------------|-----------------|------------------|-
-|-----------------|------2-----4----2-|-----------------|------2----4----2-|-
-|-0-------0-------|-------------------|-4-------0-------|------------------|-
                                                                              

-|-----------------|-------------------|-----------------|------------------|-
-|-----------------|-------------------|-----------------|------------------|-
-|-----------------|-------------------|-----------------|------------------|-
-|-4-------4-------|-----------------2-|-----------------|------------------|-
-|-----------------|------2-----4------|-4--------2------|------2----4---2--|-
-|-----------------|-------------------|-----------------|------------------|-
                                                                              

-|-----------------|-------------------|-----------------|-----------------|--
-|-----------------|-------------------|-----------------|-----------------|--
-|-----------------|-------------------|-----------------|-----------------|--
-|---2-2-2----2-2-2|---2-2-2----2-2-2--|-4--2-----2------|-----------------|--
-|5/7-----5/7------|5/7-----5/7--------|------4-4---4-2--|0---------0---1--|--
-|-----------------|-------------------|-----------------|-----------------|--
                                                                              

-|-----------------|-------------------|------------------------------------|-
-|-----------------|-------------------|------------------------------------|-
-|-----------------|-------------------|------------------------------------|-
-|-----------------|-------------------|-------------------2----------------|-
-|-1/2-2-2-2-2-2-2-|-2-----------------|------------------------------------|-
-|-----------------|----------2/3-0-2--|-0----------------------------------|-
                                                                              

-|-----------------|-------------------|----0-3b----0---|-------------------|-
-|-----------------|-------------------|----------------|-3----0----3--2--0-|-
-|-----------------|-------------------|----------------|-------------------|-
-|-----------------|-------------------|----------------|-------------------|-
-|-----------------|0---0----------0---|----------------|-------------------|-
-|0-------0-----0--|-------------------|-0--------------|-------------------|-
                                                                              

-|-----------------|------------------|-----------------|------------------|--
-|-----------------|------------------|-----------------|---5--------------|--
-|-----------------|------------------|-------------2---|4------3---2---0--|--
-|-----------------|------------------|-2----4--5-------|------------------|--
-|-----------------|0---0----------0--|-----------------|------------------|--
-|0-------0-----0--|------------------|-----------------|------------------|--
                                                                              
                                note different last time 
-|-----------------|---------------0--|3b--0------------|------------------|--
-|-----------------|------------------|---------3----0--|------------------|--
-|-----------------|------------------|-----------------|-3--2-0-----------|--
-|-----------------|------------------|-----------------|-----------2---0--|--
-|-----------------|0---0-------------|-----------------|------------------|--
-|0------0------0--|------------------|-----------------|------------------|--
                                                                              

-|-----------------|------------------|--3--0-----------|------------------|--
-|-----------------|------------------|--------3--0-----|----0-------------|--
-|-----------------|------------------|-----------------|-3-----2---0------|--
-|-----------------|------------------|-----------------|---------------2--|--
-|-----------------|0---0----------0--|-----------------|------------------|--
-|0------0--------0|------------------|0----------------|------------------|--
                                                        rit------------       

-|-------0----------|------------------------------------------------------|--
-|-------4----------|------------------------------------------------------|--
-|-------1----------|------------------------------------------------------|--
-|-------2----------|------------------------------------------------------|--
-|-------2----------|------------------------------------------------------|--
-|-------0----------|------------------------------------------------------|--
   Rhythm pattern below  E (1 2 3 4)  A (1 2 3 4)  B(7)(1 2 3 4)              

----------------------------0-000-0------0-000-0--------2-222-2---------------
----------------------------0-000-0------2-222-3--------4-444-5---------------
----------------------------1-111-2------2-222-2--------4-444-4---------------
----------------------------2-222-2------2-222-2--------4-444-4---------------
----------------------------2-222-2------0-000-0--------2-222-2---------------
----------------------------0-000-0-------------------------------------------
                                                                              



Добавлено: 17.10.2013
Другие материалы по этой песне:
  • Аккорды и текст

Страница создана 17.10.2013
http://primanota.ru/shadows/shazan-studio-version-chords.htm
Привет, Гость.
Предлагаем пройти революционный курс по гитаре.
Подарок от PrimaNota.Ru, забирай!