PrimaNota.ru - самый крупный в мире бесплатный архив песенных текстов, аккордов, табулатур и нот


Shadows - Mustang - таба, бас-таба, видео

Регистрация Запомнить меня
Войти через:  Facebook Google Twitter Vk Yandex Mail.ru

Shadows - Mustang - таба, бас-таба, видео

Печатать
Просмотров: 137
shadows_mustang

Basstab by Jan Bjorklund, Finland  jani_bjorklund@yahoo.se>
You are welcome to request for basstabs!
Fingering and positions as suggested by TablEdit, please use common sense!

TablEdited by Jan Bjorklund
Tuning : E A D G 	Time Signature: 4/4

  |       |       |       |          |       |       |       |         
|-------------------------7--------|----------------------------------|
|----------------------------------|----------------------------------|
|----------------------------------|-5-----------5---3-----------3----|
|----------------------------------|----------------------------------|

  |       |       |       |          |       |       |       |         
|----------------------------------|----------------------------------|
|-----------------3-------2--------|----------------------------------|
|-5-----------5--------------------|-5-----------5---3-----------3----|
|----------------------------------|----------------------------------|

  |       |       |       |          |       |       |       |         
|----------------------------------|----------------------------------|
|-----------------3-------2--------|----------------------------------|
|-5-----------5--------------------|-5-----------5---3-----------3----|
|----------------------------------|----------------------------------|

  |       |       |       |          |       |       |       |         
|----------------------------------|----------------------------------|
|-----------------3-------2--------|----------------------------------|
|-5-----------5--------------------|-5-----------5---3-----------3----|
|----------------------------------|----------------------------------|

  |       |       |       |          |       |       |       |         
|----------------------------------|----------------------------------|
|----------------------------------|----------------------------------|
|-5--------------------------------|-5--------------------------------|
|-----5---5---5---5---5---5---5----|---------2-------5-------2---5----|

  |       |       |       |          |       |       |       |         
|----------------------------------|----------------------------------|
|----------------------------------|----------------------------------|
|---------3------------------------|-3-------3---------------3--------|
|-1---------------5-------1--------|-----------------0----------------|

  |       |       |       |          |       |       |       |         
|----------------------------------|----------------------------------|
|----------------------------------|----------------------------------|
|-5--------------------------------|-5--------------------------------|
|---------2-------5-------2--------|---------2-------5-------2---5----|

  |       |       |       |          |       |       |       |         
|----------------------------------|----------------------------------|
|----------------------------------|-------------------------2--------|
|-----------------3----------------|-3---------------3----------------|
|-1-------5---------------1--------|---------0------------------------|

  |       |       |       |          |       |       |       |         
|----------------------------------|----------------------------------|
|----------------------------------|-------------------------4--------|
|-5--------------------------------|-----------------4----------------|
|---------2-------5-------2--------|-5-------5------------------------|

  |       |       |       |          |       |       |       |         
|----------------------------------|----------------------------------|
|----------------------------------|----------------------------------|
|---------2------------------------|---------2-------5-------2--------|
|-0---------------4-------0--------|-3--------------------------------|

  |       |       |       |          |       |       |       |         
|----------------------------------|----------------------------------|
|----------------------------------|----------------------------------|
|-5--------------------------------|---------3------------------------|
|---------2-------5-------2--------|-1---------------5-------1--------|

  |       |       |       |          |       |       |       |         
|----------------------------------|----------------------------------|
|----------------------------------|----------------------------------|
|-3-------3------------------------|-5-------5-------3-------3--------|
|-----------------0-------5--------|----------------------------------|

  |       |       |       |          |       |       |       |         
|----------------------------------|----------------------------------|
|----------------------------------|----------------------------------|
|-5--------------------------------|-5-------5-------3-------3--------|
|---------2-------5-------2--------|----------------------------------|

  |       |       |       |          |       |       |       |         
|----------------------------------|----------------------------------|
|----------------------------------|-------------------------2--------|
|-5--------------------------------|---------2-------5----------------|
|---------2-------5-------2---5----|-3--------------------------------|

  |       |       |       |          |       |       |       |         
|----------------------------------|----------------------------------|
|-3-------2------------------------|----------------------------------|
|-----------------5-------2--------|-5-----------------------2--------|
|----------------------------------|---------2---2---5---5------------|

  |       |       |       |          |       |       |       |         
|----------------------------------|----------------------------------|
|----------------------------------|-------------------------2--------|
|-3-------2------------------------|---------2-------5----------------|
|-----------------5-------2--------|-3--------------------------------|

  |       |       |       |          |       |       |       |         
|----------------------------------|----------------------------------|
|-3-------2------------------------|-----------------2-------4--------|
|-----------------5-------2--------|---------4------------------------|
|----------------------------------|-5--------------------------------|

  |       |       |       |          |       |       |       |         
|----------------------------------|----------------------------------|
|----------------------------------|----------------------------------|
|----------------------------------|-5--------------------------------|
|-5-------5---5---5---5---5---5----|---------2-------5-------2---5----|

  |       |       |       |          |       |       |       |         
|----------------------------------|----------------------------------|
|----------------------------------|----------------------------------|
|---------3------------------------|-3-------3---------------3--------|
|-1---------------5-------1--------|-----------------0----------------|

  |       |       |       |          |       |       |       |         
|----------------------------------|----------------------------------|
|----------------------------------|----------------------------------|
|-5--------------------------------|-5-------5-------3-------3--------|
|---------2-------5-------2--------|----------------------------------|

  |       |       |       |          |       |       |       |         
|----------------------------------|-------------------------7--------|
|----------------------------------|----------------------------------|
|-5--------------------------------|----------------------------------|
|----------------------------------|----------------------------------|

  |       |       |       |          |       |       |       |         
|----------------------------------|----------------------------------|
|----------------------------------|-----------------3-------2--------|
|-5-----------5---3-----------3----|-5-----------5--------------------|
|----------------------------------|----------------------------------|

  |       |       |       |          |       |       |       |         
|----------------------------------|----------------------------------|
|----------------------------------|-----------------3-------2--------|
|-5-----------5---3-----------3----|-5-----------5--------------------|
|----------------------------------|----------------------------------|

  |       |       |       |          |       |       |       |         
|----------------------------------|----------------------------------|
|----------------------------------|-----------------3-------2--------|
|-5-----------5---3-----------3----|-5-----------5--------------------|
|----------------------------------|----------------------------------|

  |       |       |       |          |       |       |       |         
|----------------------------------|----------------------------------|
|----------------------------------|----------------------------------|
|-5-----------5---3-----------3----|-5--------------------------------|
|----------------------------------|-----5---5---5---5---5---5---5----|

  |       |       |       |          |       |       |       |         
|----------------------------------|----------------------------------|
|----------------------------------|----------------------------------|
|-5--------------------------------|---------3------------------------|
|---------2-------5-------2---5----|-1---------------5-------1--------|

  |       |       |       |          |       |       |       |         
|----------------------------------|----------------------------------|
|----------------------------------|----------------------------------|
|-3-------3---------------3--------|-5--------------------------------|
|-----------------0----------------|---------2-------5-------2---5----|

  |       |       |       |          |       |       |       |         
|----------------------------------|----------------------------------|
|----------------------------------|----------------------------------|
|-5--------------------------------|---------3------------------------|
|---------2-------5-------2---5----|-1---------------5-------1--------|

  |       |       |       |          |       |       |       |         
|----------------------------------|----------------------------------|
|----------------------------------|----------------------------------|
|---------3---------------3--------|-5--------------------------------|
|-3---------------3----------------|---------2-------5-------2--------|

  |       |       |       |          |       |       |       |         
|----------------------------------|----------------------------------|
|----------------------------------|----------------------------------|
|-----------------4----------------|---------2------------------------|
|-5-------5---------------2--------|-0---------------4-------0--------|

  |       |       |       |          |       |       |       |         
|----------------------------------|----------------------------------|
|---------1------------------------|----------------------------------|
|-----------------2----------------|-5--------------------------------|
|-3-----------------------3--------|---------2-------5-------2--------|

  |       |       |       |          |       |       |       |         
|----------------------------------|----------------------------------|
|----------------------------------|----------------------------------|
|---------3------------------------|-3---------------3----------------|
|-1---------------5-------1--------|---------0---------------0--------|

  |       |       |       |          |       |       |       |         
|----------------------------------|----------------------------------|
|----------------------------------|----------------------------------|
|-5-------5-------3-------3--------|-5--------------------------------|
|----------------------------------|---------2-------5-------2---5----|

  |       |       |       |          |       |       |       |         
|----------------------------------|----------------------------------|
|----------------------------------|----------------------------------|
|-5-------5-------3-------3--------|-5--------------------------------|
|----------------------------------|---------2-------5---5---2---5----|

  |       |       |       |          |       |       |       |         
|----------------------------------|----------------------------------|
|-------------------------2---2----|-3---3---2---2--------------------|
|---------2---2---5---5------------|-----------------5---5---2---2----|
|-3---3----------------------------|----------------------------------|

  |       |       |       |          |       |       |       |         
|----------------------------------|----------------------------------|
|----------------------------------|----------------------------------|
|-5---5-------------------2---2----|-3---3---2---2--------------------|
|---------2---2---5---5------------|-----------------5---5---2---2----|

  |       |       |       |          |       |       |       |         
|----------------------------------|----------------------------------|
|-------------------------2---2----|-3---3---2---2--------------------|
|---------2---2---5---5------------|-----------------5---5---2---2----|
|-3---3----------------------------|----------------------------------|

  |       |       |       |          |       |       |       |         
|----------------------------------|----------------------------------|
|-----------------2---2---4---4----|----------------------------------|
|---------4---4--------------------|----------------------------------|
|-5---5----------------------------|-5-----5-3---5-------3---5--------|

  |       |       |       |          |       |       |       |         
|----------------------------------|----------------------------------|
|----------------------------------|----------------------------------|
|----------------------------------|-5--------------------------------|
|-5-----5-3---5-------3---5--------|---------2-------5-------2---5----|

  |       |       |       |          |       |       |       |         
|----------------------------------|----------------------------------|
|----------------------------------|----------------------------------|
|---------3------------------------|-3-------3-------3----------------|
|-1---------------5-------1--------|-------------------------0--------|

  |       |       |       |          |       |       |       |         
|----------------------------------|----------------------------------|
|----------------------------------|----------------------------------|
|-5--------------------------------|-5--------------------------------|
|---------2-------5-------2---5----|---------2-------5-------2--------|

  |       |       |       |          |       |       |       |         
|----------------------------------|----------------------------------|
|----------------------------------|----------------------------------|
|---------3------------------------|-3---------------3----------------|
|-1---------------5-------1--------|---------0---------------0--------|

  |       |       |       |          |       |       |       |         
|----------------------------------|----------------------------------|
|----------------------------------|----------------------------------|
|-5--------------------------------|-3---------------3----------------|
|---------2-------5-------2--------|---------0---------------0--------|

  |       |       |       |          |       |       |       |         
|----------------------------------|----------------------------------|
|----------------------------------|----------------------------------|
|-5--------------------------------|-3---------------3----------------|
|---------2-------5-------2--------|---------0---------------0--------|

  |       |       |       |          |       |       |       |         
|----------------------------------|----------------------------------|
|----------------------------------|----------------------------------|
|-5--------------------------------|-3---------------3----------------|
|---------2-------5-------2--------|---------0---------------0--------|

  |       |       |       |          |       |       |       |         
|----------------------------------|----------------------------------|
|----------------------------------|----------------------------------|
|-5--------------------------------|-3---------------3----------------|
|---------2-------5-------2--------|---------0---------------0--------|

  |       |       |       |          
|----------------------------------|
|----------------------------------|
|-5--------------------------------|
|---------2-------5-------2--------|


Created with TablEdit http://www.tabledit.com/

     
Добавлено: 03.11.2013
Другие материалы по этой песне:
  • Аккорды и текст

Страница создана 22.02.2012
http://primanota.ru/shadows/mustang-chords.htm
Привет, Гость.
Предлагаем пройти революционный курс по гитаре.
Подарок от PrimaNota.Ru, забирай!