PrimaNota.ru - самый крупный в мире бесплатный архив песенных текстов, аккордов, табулатур и нот


Shadows - Kon Tiki - аккорды и текст, таба, бас-таба, видео

Регистрация Запомнить меня
Войти через:  Facebook Google Twitter Vk Yandex Mail.ru

Shadows - Kon Tiki - аккорды и текст, таба, бас-таба, видео

Печатать
Просмотров: 162
Kon Tiki
Shadows
		   * The Shadows : Kon tiki (Carr)                # # 4
------------------------                        #  4


    E     E7(1)     E     E7(1)
E |-------4-4--|-4-|-------4-4--|-4---------||
B |-------3-3--|-3-|-------3-3--|-3---------||
G |-------4-4--|-4-|-------4-4--|-4-----2-4-||
D |------------|---|------------|-----2-----||
A |------------|---|------------|-----------||
E |-0-0-(0)----|---|-0-0-(0)----|-----------||

    A     D       A     E       A         E   E7(2)     A    E  E7(2)      A  A7
E |-----|-------|-----|-------|-----------|-----------|-----|-----------|------|
B |-2---|-3-3-3-|-2---|-------|-----2-(2)-|-----------|-----|-----------|------|
G |---2-|-------|---2-|-1---1-|-2-4-------|-------1-4-|-2---|-------1-4-|--2---|
D |-----|-------|-----|---4---|-----------|-2-1-0-----|---2-|-2-1-0-----|------|
A |-----|-------|-----|-------|-----------|-----------|-----|-----------|------|
E |-----|-------|-----|-------|-----------|-----------|-----|-----------|------|
   (1)         (2)
               A7
E |----------||----|
B |----------||----|
G |----22-44-||----|
D |-22-------||----|
A |----------||----|
E |----------||----|

  D    E   A   A7 E    A     D    E   A   A7 E     A
|-10---7-|-9---5-|----|----|-10---7-|-9---5-|----|-0--0--0-||
|-10---9-|10---5-|----|----|-10---9-|10---5-|----|-5/10-12-||
|-11---9-|-9---6-|----|----|-11---9-|-9---6-|----|---------||
|-12-----|-----7-|----|----|-12-----|-----7-|----|---------||
|-12-----|-----0-|----|----|-12-----|-----0-|----|---------||
|--------|-------|----|----|--------|-------|----|---------||

               (8va...)
    A          D           A       E          A                E
E |-----0--0-|-2-5-13/14-|-12--9-|-10-12--10-|--9-10-12-10--9-|-7--9-10--9-7-|
B |-12/14-10-|-3-7-14/15-|-14-10-|-12-15--12-|-10-12-14-12-10-|-9-10-12-10-9-|
G |----------|-----------|--0----|-----------|----------------|--------------|
D |----------|-----------|-------|-----------|----------------|--------------|
A |----------|-----------|-------|-----------|----------------|--------------|
E |----------|-----------|-------|-----------|----------------|--------------|

    A             E          A        A7
E |--9--7-5-(5)-|-4-5-6---|--9-9----|--9-||
B |-10--9-5-(5)-|-5-7-8-9-|-10---10-|-10-||
G |-------------|---------|--9------|--9-||
D |-------------|---------|---------|----||
A |-------------|---------|---------|----||
E |-------------|---------|---------|----||

    D  E   A  A7  E   A             D  E   A  A7 E
E |-10-7-|--9-5-|---|-------------|-10-7-|--9-5-|----|-------||
B |-10-9-|-10-5-|-5-|-2-2-(2)-2-2-|-10-9-|-10-5-|----|-------||
G |-11-9-|--9-6-|-4-|-2-2-(2)-2-2-|-11-9-|--9-6-|----|---2-4-||
D |-12---|----7-|-6-|-2-2-(2)-2-2-|-12---|------|----|-2-----||
A |-12---|------|---|-0-0-(0)-0-0-|-12---|------|----|-------||
E |------|------|---|-------------|------|------|----|-------||

    A     D       A     E       A         E   E7(2)   A     E   E7(2)  A   A7
E |-----|-------|-----|-------|-----------|-----------|-----|-----------|------|
B |-2---|-3-3-3-|-2---|-------|-----2-(2)-|-----------|-----|---------4-|------|
G |---2-|-------|---2-|-1---1-|-2-4-------|-------1-4-|-2---|-2-----6---|--2---|
D |-----|-------|-----|---4---|-----------|-2-1-0-----|---2-|---6-5-----|------|
A |-----|-------|-----|-------|-----------|-----------|-----|-----------|------|
E |-----|-------|-----|-------|-----------|-----------|-----|-----------|------|

         E7(2)                                                      A
E |-----|-------------------|---------------0-|-0-0-0-0-0-0-0----|-----||
B |-----|-----------------1-|-(1)-1---3-(3)-3-|-3-3-3-3-3-3-3----|--2--||
G |-----|-------------------|---------1-(1)-1-|-1-1-1-1-1-1-1----|--2--||
D |-----|---2---2-(2)-2-----|-------2----2----|-2-2-2-2-2-2-2----|--2--||
A |-----|-------------------|-------2----2----|-2-2-2-2-2-2-2--0-|--0--||
E |-----|-0---0----0----0---|--0----0----0----|-0-0-0-0-0-0-0----|-----||




Chords:

     E   E7(1)  A   D   E7(2) A7
E |--0----0-----0---2----4-----3--|
B |--0----3-----2---3----3-----2--|
G |--1----1-----2---2----4-----2--|
D |--2----2-----2---0----2-----2--|
A |--2----2-----0--------2-----0--|
E |--0----0-----------------------|


*******************************************************************************

                                           Keep rockin !

                                           Max ( Max_Guitarplayer@hotmail.com )

*******************************************************************************     
Добавлено: 03.07.2013
Другие материалы по этой песне:

Страница создана 12.03.2012
http://primanota.ru/shadows/kon-tiki-chords.htm
Привет, Гость.
Предлагаем пройти революционный курс по гитаре.
Подарок от PrimaNota.Ru, забирай!