PrimaNota.ru - самый крупный в мире бесплатный архив песенных текстов, аккордов, табулатур и нот


Shadows - Jet Black - таба, бас-таба, видео

Регистрация Запомнить меня
Войти через:  Facebook Google Twitter Vk Yandex Mail.ru

Shadows - Jet Black - таба, бас-таба, видео

Печатать
Просмотров: 220
Уроки эстрадного вокала в Санкт-Петербурге
JET BLACK

As recorded by The Shadows
(Released as a Single in 1959)

Music by Jet Harris

Transcribed by Slowhand


Gtr I (E A D G B E) - 'Bruce Welch - Electric Guitar'
Gtr II (E A D G B E) - 'Hank Marvin - Electric Guitar'


  Q=120
                Em                  Am
 4/4
  Gtr I
  Wx9           E S S E E E E E E   E S S E E E E E E
|------------||-0-0-0-0-0-0-0-0-0-|-0-0-0-0-0-0-0-0-0-|
|------------||-0-0-0-0-0-0-0-0-0-|-1-1-1-1-1-1-1-1-1-|
|------------||-0-0-0-0-0-0-0-0-0-|-2-2-2-2-2-2-2-2-2-|
|------------||-2-2-2-2-2-2-2-2-2-|-2-2-2-2-2-2-2-2-2-|
|------------||-2-2-2-2-2-2-2-2-2-|-0-0-0-0-0-0-0-0-0-|
|------------||-0-0-0-0-0-0-0-0-0-|-------------------|


  Em                  Am
  E S S E E E E E E   E S S E E E E E E
|-0-0-0-0-0-0-0-0-0-|-0-0-0-0-0-0-0-0-0-|
|-0-0-0-0-0-0-0-0-0-|-1-1-1-1-1-1-1-1-1-|
|-0-0-0-0-0-0-0-0-0-|-2-2-2-2-2-2-2-2-2-|
|-2-2-2-2-2-2-2-2-2-|-2-2-2-2-2-2-2-2-2-|
|-2-2-2-2-2-2-2-2-2-|-0-0-0-0-0-0-0-0-0-|
|-0-0-0-0-0-0-0-0-0-|-------------------|


  Em                  Am
  E S S E E E E E E   E S S E E E E E E
|-0-0-0-0-0-0-0-0-0-|-0-0-0-0-0-0-0-0-0-|
|-0-0-0-0-0-0-0-0-0-|-1-1-1-1-1-1-1-1-1-|
|-0-0-0-0-0-0-0-0-0-|-2-2-2-2-2-2-2-2-2-|
|-2-2-2-2-2-2-2-2-2-|-2-2-2-2-2-2-2-2-2-|
|-2-2-2-2-2-2-2-2-2-|-0-0-0-0-0-0-0-0-0-|
|-0-0-0-0-0-0-0-0-0-|-------------------|


  Em                        Em
  E E Q  H      W           E S   S   E E     E E     E E
|-0-----------|----------||-0-0---0---0-0-----0-0-----0-0-----|
|-0-----------|----------||-0-0---0---0-0-----0-0-----0-0-----|
|-0-----------|----------||-0-0---0---0-0-----0-0-----0-0-----|
|-2-----------|----------||-2-2---2---2-2-----2-2-----2-2-----|
|-2-----------|----------||-2-2---2---2-2-----2-2-----2-2-----|
|-0-----------|----------||-0-0---0---0-0-----0-0-----0-0-----|
|
| Gtr II
|                             |--3--|   |-3-|   |-3-|   |-3-|
| W             W           E S S   S e S S S e S S S e S S S
|-------------|----------||-----------7-------7-------7-------|
|-------------|----------||---------8-------8-------8-------8-|
|-------------|----------||-----9---------9-------9-------9---|
|-------------|----------||---9---------9-------9-------9-----|
|-------------|----------||-----------------------------------|
|-------------|----------||-----------------------------------|


  E S S E E E   E E E   E S S E E  E  E E E
|-0-0-0-0-0-0---0-0-0-|-0-0-0-0-0--0--0-0-0-|
|-1-1-1-1-1-1---1-1-1-|-0-0-0-0-0--0--0-0-0-|
|-2-2-2-2-2-2---2-2-2-|-0-0-0-0-0--0--0-0-0-|
|-2-2-2-2-2-2---2-2-2-|-2-2-2-2-2--2--2-2-2-|
|-0-0-0-0-0-0---0-0-0-|-2-2-2-2-2--2--2-2-2-|
|---------------------|-0-0-0-0-0--0--0-0-0-|
|
| e e   Q   S S E E E   E Q     E +E  E E E
|-7-7-------5h6p5-----|---------------------|
|-----------------8-5-|---------------------|
|---------------------|---7-----6-(6)-5-5-5-|
|---------------------|---------------------|
|---------------------|---------------------|
|---------------------|---------------------|


  E S S E E E E E E   E S S E E E E E   E
|-0-0-0-0-0-0-0-0-0-|-0-0-0-0-0-0-0-0---0-|
|-1-1-1-1-1-1-1-1-1-|-0-0-0-0-0-0-0-0---0-|
|-2-2-2-2-2-2-2-2-2-|-0-0-0-0-0-0-0-0---0-|
|-2-2-2-2-2-2-2-2-2-|-2-2-2-2-2-2-2-2---2-|
|-0-0-0-0-0-0-0-0-0-|-2-2-2-2-2-2-2-2---2-|
|-------------------|-0-0-0-0-0-0-0-0---0-|
|
| E E   E E E E E E   E E   E E Q   S S E
|-------------------|-----------------7---|
|-------------------|-5-------5-8-------8-|
|-4-4---5-4-3-4-3-4-|---------------------|
|-------------------|---------------------|
|-------------------|---------------------|
|-------------------|---------------------|


  Am                          Em                         Em
  E S S E  E     E  E  E  E    E E Q  H      W           E S   S   E E E E E E
|-0-0-0-0--0-----0--0--0--0-|--0-----------|----------||-0-0---0---0-0-0-0-0-0-|
|-1-1-1-1--1-----1--1--1--1-|--0-----------|----------||-0-0---0---0-0-0-0-0-0-|
|-2-2-2-2--2-----2--2--2--2-|--0-----------|----------||-0-0---0---0-0-0-0-0-0-|
|-2-2-2-2--2-----2--2--2--2-|--2-----------|----------||-2-2---2---2-2-2-2-2-2-|
|-0-0-0-0--0-----0--0--0--0-|--2-----------|----------||-2-2---2---2-2-2-2-2-2-|
|---------------------------|--0-----------|----------||-0-0---0---0-0-0-0-0-0-|
|
|                                                          |--3--|
| E Q      E     E  E  E  E    E E Q  H      W           E S S   S e E E E E E
|---------------12-12----12-|-12-----------|----------||-----------7-----7-6-7-|
|---------11b12-------12-12-|-12-----------|----------||---------8-------------|
|---------------------------|--------------|----------||-----9-----------------|
|---9-----------------------|--------------|----------||---9-------------------|
|---------------------------|--------------|----------||-----------------------|
|---------------------------|--------------|----------||-----------------------|


  Am                       Em                  Am
   E  S S  E   E E E E E   E S S E E E E E E   E S S E E   E E   E E
|--0--0-0--0---0-0-0-0-0-|-0-0-0-0-0-0-0-0-0-|-0-0-0-0-0---0-0---0-0--|
|--1--1-1--1---1-1-1-1-1-|-0-0-0-0-0-0-0-0-0-|-1-1-1-1-1---1-1---1-1--|
|--2--2-2--2---2-2-2-2-2-|-0-0-0-0-0-0-0-0-0-|-2-2-2-2-2---2-2---2-2--|
|--2--2-2--2---2-2-2-2-2-|-2-2-2-2-2-2-2-2-2-|-2-2-2-2-2---2-2---2-2--|
|--0--0-0--0---0-0-0-0-0-|-2-2-2-2-2-2-2-2-2-|-0-0-0-0-0---0-0---0-0--|
|------------------------|-0-0-0-0-0-0-0-0-0-|------------------------|
|
|  Q       S S E Q   E E   E Q     E Q   E E   Q     E S S E S S E E
|------------------------|-------------------|---------6-6-6-3---3----|
|-11\-----10-9---8-------|---------8---------|-----------------5------|
|--------------9---------|-7-9-------9---7---|-7-------------------4--|
|----------------------9-|-----------------9-|------------------------|
|------------------------|-------------------|------------------------|
|------------------------|-------------------|------------------------|


  Em                      Am                  Em
  E S S E E   E E E   E   E S S E E E E E E   E E Q  H      W
|-0-0-0-0-0---0-0-0---0-|-0-0-0-0-0-0-0-0-0-|-0-----------|------||
|-0-0-0-0-0---0-0-0---0-|-1-1-1-1-1-1-1-1-1-|-0-----------|------||
|-0-0-0-0-0---0-0-0---0-|-2-2-2-2-2-2-2-2-2-|-0-----------|------||
|-2-2-2-2-2---2-2-2---2-|-2-2-2-2-2-2-2-2-2-|-2-----------|------||
|-2-2-2-2-2---2-2-2---2-|-0-0-0-0-0-0-0-0-0-|-2-----------|------||
|-0-0-0-0-0---0-0-0---0-|-------------------|-0-----------|------||
|
| E S S E S S E E S S E   E E   E E E E E E   E E Q  H      W
|-----------------------|-------------------|-------------|------||
|-3-5-3---3-5-3---3-5-3-|---3---5-3---------|-5-----------|------||
|-------4-------4-------|-4---------4-4-4-4-|-------------|------||
|-----------------------|-------------------|-------------|------||
|-----------------------|-------------------|-------------|------||
|-----------------------|-------------------|-------------|------||


  Em                          Am
   E  S S   E  E  E   E E E   E S S  E  E E E E E
|--0--0-0---0--0--0---0-0-0-|-0-0-0--0--0-0-0-0-0-|
|--0--0-0---0--0--0---0-0-0-|-1-1-1--1--1-1-1-1-1-|
|--0--0-0---0--0--0---0-0-0-|-2-2-2--2--2-2-2-2-2-|
|--2--2-2---2--2--2---2-2-2-|-2-2-2--2--2-2-2-2-2-|
|--2--2-2---2--2--2---2-2-2-|-0-0-0--0--0-0-0-0-0-|
|--0--0-0---0--0--0---0-0-0-|---------------------|
|
|  E  E    +E  E +E   E Q     E E   +E  E Q   Q
|---------------------------|---------------------|
|---------------------------|---2---(2)-0---------|
|-12-11---(11)-9-(9)-11-9---|---2---(2)-0-2-------|
|-12-11---(11)-9-(9)-11-9---|-------------2-------|
|---------------------------|---------------------|
|---------------------------|---------------------|


  Em                    Am
  E   S S E E E E E E   E S S E   E E E E E
|-0---0-0-0-0-0-0-0-0-|-0-0-0-0---0-0-0-0-0--|
|-0---0-0-0-0-0-0-0-0-|-1-1-1-1---1-1-1-1-1--|
|-0---0-0-0-0-0-0-0-0-|-2-2-2-2---2-2-2-2-2--|
|-2---2-2-2-2-2-2-2-2-|-2-2-2-2---2-2-2-2-2--|
|-2---2-2-2-2-2-2-2-2-|-0-0-0-0---0-0-0-0-0--|
|-0---0-0-0-0-0-0-0-0-|----------------------|
|
| E   E   E E E E E E   E E   S S E E E E E
|---------------------|----------------------|
|-4b5-----------------|----------------------|
|-----4---4-----------|-4-5---4-5-4----------|
|-----------5-7-5-7-5-|-------------7-5------|
|---------------------|-----------------7-7--|
|---------------------|----------------------|


  Em                            Am
  E S S  E  E    E    E  E  E   E S  S E E E E E E
|-0-0-0--0--0----0----0--0--0-|-0-0--0-0-0-0-0-0-0-|
|-0-0-0--0--0----0----0--0--0-|-1-1--1-1-1-1-1-1-1-|
|-0-0-0--0--0----0----0--0--0-|-2-2--2-2-2-2-2-2-2-|
|-2-2-2--2--2----2----2--2--2-|-2-2--2-2-2-2-2-2-2-|
|-2-2-2--2--2----2----2--2--2-|-0-0--0-0-0-0-0-0-0-|
|-0-0-0--0--0----0----0--0--0-|--------------------|
|
| E E   +E  S S +S  S E +E  E   E Q.       E E Q
|-----------------------------|--------------------|
|-------------5-(5)---5-(5)---|---8--------5-3-5---|
|-----------4-------4---------|---6----------------|
|---5---(5)-------------------|--------------------|
|-7---------------------------|--------------------|
|-----------------------------|--------------------|


  E  E Q  H      W
|-0------------|------------------||
|-0------------|------------------||
|-0------------|------------------||
|-2------------|------------------||
|-2------------|------------------||
|-0------------|------------------||
|
| E  E Q  H      H    Q  E  E
|--------------|-----------11b12==||
|-5\-----------|------------------||
|--------------|------------------||
|--------------|------------------||
|--------------|------------------||
|--------------|------------------||


  Em                            Am
    E   S S  E  E  E  E  E  E   E  S S  E  E  E E  E E
|---0---0-0--0--0--0--0--0--0-|-0--0-0--0--0--0-0--0-0-|
|---0---0-0--0--0--0--0--0--0-|-1--1-1--1--1--1-1--1-1-|
|---0---0-0--0--0--0--0--0--0-|-2--2-2--2--2--2-2--2-2-|
|---2---2-2--2--2--2--2--2--2-|-2--2-2--2--2--2-2--2-2-|
|---2---2-2--2--2--2--2--2--2-|-0--0-0--0--0--0-0--0-0-|
|---0---0-0--0--0--0--0--0--0-|------------------------|
|
|  +Q        E  E  E  E  E  E   E  E    E  E  Q    Q
|-(11)r-----------------------|------------------------|
|-----------12----10----10----|---12---12-12-10---12---|
|--------------12----12----12-|------------------------|
|-----------------------------|------------------------|
|-----------------------------|------------------------|
|-----------------------------|------------------------|


  Em                                Am
  E     S  S   E   E   E   E  E E   E S S  E E E E E E
|-0-----0--0---0---0---0---0--0-0-|-0-0-0--0-0-0-0-0-0--|
|-0-----0--0---0---0---0---0--0-0-|-1-1-1--1-1-1-1-1-1--|
|-0-----0--0---0---0---0---0--0-0-|-2-2-2--2-2-2-2-2-2--|
|-2-----2--2---2---2---2---2--2-2-|-2-2-2--2-2-2-2-2-2--|
|-2-----2--2---2---2---2---2--2-2-|-0-0-0--0-0-0-0-0-0--|
|-0-----0--0---0---0---0---0--0-0-|---------------------|
|
| S  S  S  S  +E   E  +E   E  Q     Q      E E Q   E E
|---------12-(12)-10-(10)----10---|----------9-----7----|
|------12-----------------12------|-------10---8-----5--|
|-9-12----------------------------|---------------------|
|---------------------------------|---------------------|
|---------------------------------|---------------------|
|---------------------------------|---------------------|


  Em                        Am                      Em
   E  S   S   E E E E E E   E S S  E E E    E E E   E E Q  H      W
|--0--0---0---0-0-0-0-0-0-|-0-0-0--0-0-0----0-0-0-|-0-----------|------||
|--0--0---0---0-0-0-0-0-0-|-1-1-1--1-1-1----1-1-1-|-0-----------|------||
|--0--0---0---0-0-0-0-0-0-|-2-2-2--2-2-2----2-2-2-|-0-----------|------||
|--2--2---2---2-2-2-2-2-2-|-2-2-2--2-2-2----2-2-2-|-2-----------|------||
|--2--2---2---2-2-2-2-2-2-|-0-0-0--0-0-0----0-0-0-|-2-----------|------||
|--0--0---0---0-0-0-0-0-0-|-----------------------|-0-----------|------||
|
|     |--3--|
| +E  S S   S E E E E E E   E E    Q   Q      E E   E E Q  H      W
|-------------7-----7-----|-7---------------------|-------------|------||
|-(5)-------8-----------8-|---8---10---8b10---8---|-------------|------||
|-------9-----------------|---------------------9-|-9-----------|------||
|-----9-----------9-------|-----------------------|-------------|------||
|-------------------------|-----------------------|-------------|------||
|-------------------------|-----------------------|-------------|------||


  Em                  Am
  E S S E E E E E E   E S S E E E E E E
|-0-0-0-0-0-0-0-0-0-|-0-0-0-0-0-0-0-0-0-|
|-0-0-0-0-0-0-0-0-0-|-1-1-1-1-1-1-1-1-1-|
|-0-0-0-0-0-0-0-0-0-|-2-2-2-2-2-2-2-2-2-|
|-2-2-2-2-2-2-2-2-2-|-2-2-2-2-2-2-2-2-2-|
|-2-2-2-2-2-2-2-2-2-|-0-0-0-0-0-0-0-0-0-|
|-0-0-0-0-0-0-0-0-0-|-------------------|
|
| E S S E E E E Q     E S S E E E E Q
|-------------------|-------------------|
|-8-8-8-8-8-7-------|-5-5-5-5-5-3-------|
|-------------------|-------------------|
|-------------------|---------------2---|
|-------------------|-------------------|
|-------------------|-------------------|


  Em                  Am
  E S S E E E E E E   E S   S E   E E E   E   E
|-0-0-0-0-0-0-0-0-0-|-0-0---0-0---0-0-0---0---0--|
|-0-0-0-0-0-0-0-0-0-|-1-1---1-1---1-1-1---1---1--|
|-0-0-0-0-0-0-0-0-0-|-2-2---2-2---2-2-2---2---2--|
|-2-2-2-2-2-2-2-2-2-|-2-2---2-2---2-2-2---2---2--|
|-2-2-2-2-2-2-2-2-2-|-0-0---0-0---0-0-0---0---0--|
|-0-0-0-0-0-0-0-0-0-|----------------------------|
|
|                     |----3----|   |---3---|
| E E   E E E E E E   Q   Q     Q   Q   Q   Q
|---------5-6-5-----|----------------------------|
|---5---8-------8-5-|-8---5----------------------|
|-------------------|-----------8---7-------7----|
|-------------------|-------------------9--------|
|-------------------|----------------------------|
|-------------------|----------------------------|


  Em                          Am                   Em
  E S   S E   E E E   E   E    E S S E E E E E E     E E Q  H      W
|-0-0---0-0---0-0-0---0---0-|--0-0-0-0-0-0-0-0-0-|---0-----------|------||
|-0-0---0-0---0-0-0---0---0-|--1-1-1-1-1-1-1-1-1-|---0-----------|------||
|-0-0---0-0---0-0-0---0---0-|--2-2-2-2-2-2-2-2-2-|---0-----------|------||
|-2-2---2-2---2-2-2---2---2-|--2-2-2-2-2-2-2-2-2-|---2-----------|------||
|-2-2---2-2---2-2-2---2---2-|--0-0-0-0-0-0-0-0-0-|---2-----------|------||
|-0-0---0-0---0-0-0---0---0-|--------------------|---0-----------|------||
|
| |----3----|   |---3---|
| Q   Q     Q   Q   Q   Q      Q     E E E E E E     Q   Q  H      W
|-----------------------3---|-/7-------7---------|-/12-----------|------||
|-5-----------------5-------|------------8---8---|-/12-----------|------||
|-----4---------4-----------|--------------9-----|---------------|------||
|-----------5---------------|--------------------|---------------|------||
|---------------------------|--------------------|---------------|------||
|---------------------------|--------------------|---------------|------||


  E S S  E E  E E  E E    E S S E  E  E  E  E E
|-0-0-0--0-0--0-0--0-0-|--0-0-0-0--0--0--0--0-0-|
|-0-0-0--0-0--0-0--0-0-|--1-1-1-1--1--1--1--1-1-|
|-0-0-0--0-0--0-0--0-0-|--2-2-2-2--2--2--2--2-2-|
|-2-2-2--2-2--2-2--2-2-|--2-2-2-2--2--2--2--2-2-|
|-2-2-2--2-2--2-2--2-2-|--0-0-0-0--0--0--0--0-0-|
|-0-0-0--0-0--0-0--0-0-|------------------------|
|
| Q      Q    Q    Q      Q     E  E  E  E  Q
|-------12-------------|------------------------|
|-------12---14---12---|------------------------|
|------------14---12---|-14-------14-14-14-12---|
|----------------------|-14-------14-14-14-14---|
|----------------------|------------------------|
|----------------------|------------------------|


   E  S S E  E  E E E E   E S S E E E E    E    E
|--0--0-0-0--0--0-0-0-0-|-0-0-0-0-0-0-0----0----0-|
|--0--0-0-0--0--0-0-0-0-|-1-1-1-1-1-1-1----1----1-|
|--0--0-0-0--0--0-0-0-0-|-2-2-2-2-2-2-2----2----2-|
|--2--2-2-2--2--2-2-2-2-|-2-2-2-2-2-2-2----2----2-|
|--2--2-2-2--2--2-2-2-2-|-0-0-0-0-0-0-0----0----0-|
|--0--0-0-0--0--0-0-0-0-|-------------------------|
|
|                                   |----3----|
|  Q.        E  H         H         Q    Q    Q
|-----------12-12-------|---------------15---15---|
|-12--------12-12-------|-------------------------|
|-12--------------------|-------------------------|
|-----------------------|-------------------------|
|-----------------------|-------------------------|
|-----------------------|-------------------------|


  Em
   E S    S E    E  E E E  E
|--0-0----0-0----0--0-0-0--0-|
|--0-0----0-0----0--0-0-0--0-|
|--0-0----0-0----0--0-0-0--0-|
|--2-2----2-2----2--2-2-2--2-|
|--2-2----2-2----2--2-2-2--2-|
|--0-0----0-0----0--0-0-0--0-|
|
|  |-----3-----|
|  Q    Q      Q    Q   E  E
|-15-------------------------|
|------17-----15---17--------|
|-------------------------15-|
|----------------------------|
|----------------------------|
|----------------------------|


  Am                               Em
    E   S S  E     E  E  E  E  E    E E Q  H      W
|---0---0-0--0-----0--0--0--0--0-|--0-----------|------||
|---1---1-1--1-----1--1--1--1--1-|--0-----------|------||
|---2---2-2--2-----2--2--2--2--2-|--0-----------|------||
|---2---2-2--2-----2--2--2--2--2-|--2-----------|------||
|---0---0-0--0-----0--0--0--0--0-|--2-----------|------||
|--------------------------------|--0-----------|------||
|
|  +E   E    S  S  E  E  E  E  E    E E Q  H      W
|--------------------------------|-12-----------|------||
|--------------------------------|-12-----------|------||
|-(15)-16---15-14-12----------12-|--------------|------||
|--------------------14-12-------|--------------|------||
|--------------------------14----|--------------|------||
|--------------------------------|--------------|------||


  Gtr I
  W          W          W          W
|----------|----------|----------|------|
|----------|----------|----------|------|
|----------|----------|----------|------|
|----------|----------|----------|------|
|----------|----------|----------|------|
|----------|----------|----------|------|


                        Em
  Gtr I
  W          W          E E Q  H      H    Q  Q    +W
|----------|----------|-0-----------|---------0--|-(0)----*|
|----------|----------|-0-----------|---------0--|-(0)----*|
|----------|----------|-0-----------|---------0--|-(0)----*|
|----------|----------|-2-----------|---------2--|-(2)----*|
|----------|----------|-2-----------|---------2--|-(2)----*|
|----------|----------|-0-----------|---------0--|-(0)----*|
|
| Gtr II
| W          W          W             H    Q  Q    +W
|----------|----------|-------------|---------7--|-(7)----*|
|----------|----------|-------------|---------8--|-(8)----*|
|----------|----------|-------------|---------9--|-(9)----*|
|----------|----------|-------------|---------9--|-(9)----*|
|----------|----------|-------------|---------7--|-(7)----*|
|----------|----------|-------------|------------|--------*|


Duration Legend
---------------
W - whole; H - half; Q - quarter; E - 8th; S - 16th; T - 32nd; X - 64th; a - acciaccatura
+ - note tied to previous; . - note dotted; .. - note double dotted
Uncapitalized letters represent notes that are staccato (1/2 duration)
Irregular groupings are notated above the duration line
Duration letters will always appear directly above the note/fret number it represents the
duration for.  Duration letters with no fret number below them represent rests.  Multi-
bar rests are notated in the form Wxn, where n is the number of bars to rest for.  Low
melody durations appear below the staff

Tablature Legend
----------------
 h   - hammer-on
 p   - pull-off
 b   - bend
 pb  - pre-bend
 r   - bend release (if no number after the r, then release immediately)
 /\  - slide into or out of (from/to "nowhere")
 s   - legato slide
 S   - shift slide
  - natural harmonic
[n]  - artificial harmonic
n(n) - tapped harmonic
 ~   - vibrato
 tr  - trill
 T   - tap
 TP  - trem. picking
 PM  - palm muting
\n/  - tremolo bar dip; n = amount to dip
 \n  - tremolo bar down
 n/  - tremolo bar up
/n\  - tremolo bar inverted dip
 =   - hold bend; also acts as connecting device for hammers/pulls
 <>  - volume swell (louder/softer)
 x   - on rhythm slash represents muted slash
 o   - on rhythm slash represents single note slash

Misc Legend
-----------
 |  - bar
||  - double bar
||o - repeat start
o|| - repeat end
*|  - double bar (ending)
 :  - bar (freetime)
 $  - Segno
 &  - Coda
Tempo markers -  = BPM(8/16=s8/s16), where s8 = swing 8ths, s16 = swing 16ths
Добавлено: 07.06.2015
Другие материалы по этой песне:

Страница создана 19.08.2013
http://primanota.ru/shadows/jet-black-chords.htm
Привет, Гость.
Предлагаем пройти революционный курс по гитаре.
Подарок от PrimaNota.Ru, забирай!