PrimaNota.ru - самый крупный в мире бесплатный архив песенных текстов, аккордов, табулатур и нот


Shadows - Don't Cry For Me Argentina - таба, бас-таба, видео

Регистрация Запомнить меня
Войти через:  Facebook Google Twitter Vk Yandex Mail.ru

Shadows - Don't Cry For Me Argentina - таба, бас-таба, видео

Печатать
Просмотров: 159
Don't cry for me Argentina (Shadows version)

E --------------------------------------------------------------------------------------|
B --------------------------------------------------------------------------------------|
G ---------------7----------------------------------------------------------------------|
D -7-7-7-7-7-7-7---9-9-9-9-9-9-9-9-7-7-------------------------------------7-9----------|
A -------------------------------------7-9-10-10-10-10-10h12p10--9-7-9-9-9-----9--------|
E --------------------------------------------------------------------------------------|

E --------------------------------------------------------------------------------------|
B --------------------------------------------------------------------------------------|
G --------------------------------------------------------------------------------------|
D -------------7-7-6-6-6-------------------------9-7-6-7--------------------------------|
A -9-9-9-9-9-------------9-9-7-7-7-7h9p7-7-7-7-7----------------------------------------|
E --------------------------------------------------------------------------------------|

E ---------------------------10---------------------------------------------------------|
B-10b12r10-8-7-8-10-10-10-10----12-12-12-12-12-12-12-10-10---7-8-8-8-8-8b10r8-7---7-----|
G ---------------------------------------------------------9--------------------9-------|
D --------------------------------------------------------------------------------------|
A --------------------------------------------------------------------------------------|
E --------------------------------------------------------------------------------------|

E --------7-----------------------------------------------------------------------------|
B -7-7-10---7-7-7-7-7-7-10-10-9-9-9-7-7----------------------12-10-9-10-----------------|
G --------------------------------------9-9-9-9b11r9-9-9-9-9----------------------------|
D --------------------------------------------------------------------------------------|
A --------------------------------------------------------------------------------------|
E --------------------------------------------------------------------------------------|

Chorus
E -2-2-2-2-3-5-7-----7-7---10-5-3-2-----------------------------------------------------|
B -3-3-3-3-3-5-8-7-7-8-8-7-10-5-3-3--7-8-10----------8-----------7-10-------------------|
G -2-2-2-2-4-6-7-7-7-7-7-7-11-6-4-2---------9-9-9h11---7-7-7h9-7--------------7---------|
D ---------5-7---7-7-----7-12-7-5-------------------------------------7-7-7-9-----------|
A --------------------------------------------------------------------------------------|
E --------------------------------------------------------------------------------------|
End chorus

E ----------------------10--------------------------------------------------------------|
B -10-10-10-10-10-10-10----12-12-12-12-12-12-12-10-10-----------------------------------|
G ----------------------------------------------------9-11-12-12-12-12b14r12-11-9-11----|
D --------------------------------------------------------------------------------------|
A --------------------------------------------------------------------------------------|
E --------------------------------------------------------------------------------------|

E --------------------------------------------------------------------------------------|
B -------10-12-------------------10-10-9-9-9-------------------------12-10-9-10---------|
G -11-11-------11-11-11-11-11-11------------11-11-9-9-9b11r9-9-9-9-9--------------------|
D --------------------------------------------------------------------------------------|
A --------------------------------------------------------------------------------------|
E --------------------------------------------------------------------------------------|

Chorus
E -2-2-2-2-3-5-7-----7-7---10-5-3-2-----------------------------------------------------|
B -3-3-3-3-3-5-8-7-7-8-8-7-10-5-3-3--7-8-10----------8-----------7-10-------------------|
G -2-2-2-2-4-6-7-7-7-7-7-7-11-6-4-2---------9-9-9h11---7-7-7h9-7--------------7---------|
D ---------5-7---7-7-----7-12-7-5-------------------------------------7-7-7-9-----------|
A --------------------------------------------------------------------------------------|
E --------------------------------------------------------------------------------------|
End chorus


E -2-2-2-2-3-5-7------------------------------------------------------------------------|
B -3-3-3-3-3-5-8-7----------------------------------------------------------------------|
G -2-2-2-2-4-6-7-7----------------------------------------------------------------------|
D ---------5-7---7----------------------------------------------------------------------|
A --------------------------------------------------------------------------------------|
E --------------------------------------------------------------------------------------|
Добавлено: 22.05.2012
Другие материалы по этой песне:

Страница создана 22.05.2012
http://primanota.ru/shadows/dont-cry-for-me-argentina-chords.htm
Привет, Гость.
Предлагаем пройти революционный курс по гитаре.
Подарок от PrimaNota.Ru, забирай!