PrimaNota.ru - самый крупный в мире бесплатный архив песенных текстов, аккордов, табулатур и нот


Shadows - 36-24-36 - таба, бас-таба, видео

Регистрация Запомнить меня
Войти через:  Facebook Google Twitter Vk Yandex Mail.ru

Shadows - 36-24-36 - таба, бас-таба, видео

Печатать
Просмотров: 149
                                 36-24-36


Gtr I (E A D G B E) 

  Q=160
 4/4
       W           W         W          W
  Gtr I
     W           W           W          W
|-----------|-----------|----------|---------||
|-----------|-----------|----------|---------||
|-----------|-----------|----------|---------||
|-----------|-----------|----------|---------||
|-----------|-----------|----------|---------||
|-----------|-----------|----------|---------||


  C   Bb   C    Bb   C   Bb   C    Bb   C   Bb
   W         W        W        W         W
|-------|---------|--------|---------|--------|
|-------|---------|--------|---------|--------|
|-------|---------|--------|---------|--------|
|-------|---------|--------|---------|--------|
|-------|---------|--------|---------|--------|
|-------|---------|--------|---------|--------|


  C    Bb   C                          C     Bb
            E E Q    H        W
            |
            /

                                    Gtr I
    W              W          W        Q  Q  Q  E E
|---------|--------------|----------||--------------|
|---------|--------------|----------||----6--8--6---|
|---------|--------------|----------||------------8-|
|---------|--------------|----------||--------------|
|---------|--------------|----------||--------------|
|---------|--------------|----------||--------------|


  C      Bb        C     Bb       C        Bb      C     Bb
  Q  Q a E E E E   Q  Q  Q  E E   Q  Q a E E E E   Q  Q  Q  E E
|----------------|--------------|----------------|--------------|
|------5-6-8-6---|----6--8--6---|------5-6-8-6---|----6--8--6---|
|-5--8---------8-|-5----------8-|-5--8---------8-|-5----------8-|
|----------------|--------------|----------------|--------------|
|----------------|--------------|----------------|--------------|
|----------------|--------------|----------------|--------------|


  C       Bb        C                          F
                    E E Q    H        W
                    |
                    /

  Q  Q  a E E E E   E E Q  H          W        E E E E E E E  E
|-----------------|--------------|----------||------------------|
|-------5-6-8-6---|--------------|----------||------------------|
|-5--8----------8-|-5------------|----------||-2---2---2------2-|
|-----------------|--------------|----------||-3---3---3------3-|
|-----------------|--------------|----------||-3---3---3------3-|
|-----------------|--------------|----------||------------------|


                 F#     G
  E E  E  E E E  E  E   E E E E E  E E E    E E  E  E  E E E  E
|---------------------|------------------|-------------------------||
|---------------------|------------------|-------------------------||
|---2-----2-2-2--3----|-4---4---4------4-|----4-----4--4-4-4-------||
|---3-----3-3-3--4----|-5---5---5------5-|----5-----5--5-5-5-------||
|---3-----3-3-3--4----|-5---5---5------5-|----5-----5--5-5-5-------||
|---------------------|------------------|-------------------------||


  C
  E E Q      H                 W
  |
  /

  E E E  E E E E  E   E E E  Q     E E E
|-0---0-------------|-1-1-1--------------|
|-1---1----3-3-3----|-1-1-1--3-----3-3---|
|-0---0----3-3-3----|-2-2-2--4-----4-4---|
|-2---2----3-3-3----|-3-3-3--5-----5-5---|
|-------------------|--------------------|
|-------------------|--------------------|


         W                     W
  E E E  E  E E E E   E E E  Q    E E  E
|-0---0-------------|-1-1-1----------------|
|-1---1-----3-3-3---|-1-1-1--3----3-3------|
|-0---0-----3-3-3---|-2-2-2--4----4-4------|
|-2---2-----3-3-3---|-3-3-3--5----5-5------|
|-------------------|----------------------|
|-------------------|----------------------|


  C        Bb         F      G            C        Bb         F      G
  E E E  E E E E  E   E E E  Q   E E  E   E E E  E E E E  E   E E E  Q  E E  E
|-0---0-------------|-1-1-1-------------|-0---0-------------|-1-1-1------------|
|-1---1----3-3-3----|-1-1-1--3---3-3----|-1---1----3-3-3----|-1-1-1--3--3-3----|
|-0---0----3-3-3----|-2-2-2--4---4-4----|-0---0----3-3-3----|-2-2-2--4--4-4----|
|-2---2----3-3-3----|-3-3-3--5---5-5----|-2---2----3-3-3----|-3-3-3--5--5-5----|
|-------------------|-------------------|-------------------|------------------|
|-------------------|-------------------|-------------------|------------------|


  C                          C   Bb    C     Bb     C     Bb        C   Bb
  E  E Q H        W
  |
  /

  Q  Q Q Q    E E E E Q Q    Q Q Q Q    Q  Q Q  Q   E E E E E E Q   H.   E  E
|-8-11-8-6-|--------------||---------|------------|---------------|---------6-|
|-8-10-8-8-|--6-----------||-6S8-6S8-|-11S13-8S11-|-8s6-----------|---------8-|
|----------|----8-5---5---||---------|------------|-----8-5-8-5---|-----------|
|----------|--------8-5---||---------|------------|-------------8-|-5---------|
|----------|--------------||---------|------------|---------------|-----------|
|----------|--------------||---------|------------|---------------|-----------|


  C     Bb    C    Bb    C
                         E E Q    H                  W
                         |
                         /

  +Q  Q Q Q   Q Q  Q Q   Q   Q  Q   Q     E  S  S  E   E E E E E
|-(6)S8-7S8-|-7S8------|----------------|-6--6--------------------||
|-(8)-------|------7S8-|-7S==8--7S==8---|----8S=7--6-----6--------||
|-----------|----------|----------------|--------------8---8-5-5--||
|-----------|----------|----------------|-------------------------||
|-----------|----------|----------------|-------------------------||
|-----------|----------|----------------|-------------------------||


  F                             F#    G
  E E E E E E E E   E E E E E E E E   E E E E E E E E   E E E E E E E E
|-----------------|-----------------|-----------------|-------------------||
|-----------------|-----------------|-----------------|-------------------||
|-2---2---2-----2-|---2---2-2-2-3---|-4---4---4-----4-|---4---4-4-4-4-----||
|-3---3---3-----3-|---3---3-3-3-4---|-5---5---5-----5-|---5---5-5-5-5-----||
|-3---3---3-----3-|---3---3-3-3-4---|-5---5---5-----5-|---5---5-5-5-5-----||
|-----------------|-----------------|-----------------|-------------------||


  C
  E E Q     H               W               W                   W
  |
  /

  E E E E E E E E   E E E Q   E E E   E E E E E E E E   E E E Q   E E E
|-0---0-----------|-1-1-1-----------|-0---0-----------|-1-1-1-----------|
|-1---1---3-3-3---|-1-1-1-3---3-3---|-1---1---3-3-3---|-1-1-1-3---3-3---|
|-0---0---3-3-3---|-2-2-2-4---4-4---|-0---0---3-3-3---|-2-2-2-4---4-4---|
|-2---2---3-3-3---|-3-3-3-5---5-5---|-2---2---3-3-3---|-3-3-3-5---5-5---|
|-----------------|-----------------|-----------------|-----------------|
|-----------------|-----------------|-----------------|-----------------|


  C       Bb        F     G          C       Bb        F     G
  E E E E E E E E   E E E Q  E E E   E E E E E E E E   E E E Q  E E E
|-0---0-----------|-1-1-1----------|-0---0-----------|-1-1-1----------|
|-1---1---3-3-3---|-1-1-1-3--3-3---|-1---1---3-3-3---|-1-1-1-3--3-3---|
|-0---0---3-3-3---|-2-2-2-4--4-4---|-0---0---3-3-3---|-2-2-2-4--4-4---|
|-2---2---3-3-3---|-3-3-3-5--5-5---|-2---2---3-3-3---|-3-3-3-5--5-5---|
|-----------------|----------------|-----------------|----------------|
|-----------------|----------------|-----------------|----------------|


  C      Bb   C       Bb      C     Bb       C       Bb        C     Bb
  E E Q  H    Q E a Q  E Q    Q  Q  Q  E E   Q  Q  a E E E E   Q  Q  Q  E E
|-----------|---------------|--------------|-----------------|---------------|
|-1---------|---------------|----6--8--6---|-------5-6-8-6---|----6--8--6----|
|-0---------|-----4-5-------|------------8-|-5--8----------8-|-5----------8--|
|-2---------|----------8-8--|--------------|-----------------|---------------|
|-----------|---------------|--------------|-----------------|---------------|
|-----------|---------------|--------------|-----------------|---------------|


  C         Bb              C
                            E   E   Q      H            W
                            |
                            /

  Q  Q   a  E  E  E  E      E   E   Q    H              W
|------------------------|-------------------------|---------|
|--------5--6--8--6------|-------------------------|---------|
|-5--8---------------8---|--5----------------------|---------|
|------------------------|-------------------------|---------|
|------------------------|-------------------------|---------|
|------------------------|-------------------------|---------|


  C     Bb       C       Bb        C     Bb       C       Bb
  Q  Q  Q  E E   Q  Q  a E E E E   Q  Q  Q  E E   Q  Q  a E E E E
|--------------|-----------------|--------------|-----------------|
|----6--8--6---|-------5-6-8-6---|----6--8--6---|-------5-6-8-6---|
|------------8-|-5--8----------8-|-5----------8-|-5--8----------8-|
|--------------|-----------------|--------------|-----------------|
|--------------|-----------------|--------------|-----------------|
|--------------|-----------------|--------------|-----------------|


  C     Bb       C       Bb        C
                                   E E Q    H          W
                                   |
                                   /

  Q  Q  Q  E E   Q  Q  a E E E E   E E Q  H       W
|--------------|-----------------|--------------|-----------*|
|----6--8--6---|-------5-6-8-6---|--------------|-----------*|
|-5----------8-|-5--8----------8-|-5------------|-----------*|
|--------------|-----------------|--------------|-----------*|
|--------------|-----------------|--------------|-----------*|
|--------------|-----------------|--------------|-----------*|


Duration Legend
---------------
W - whole; H - half; Q - quarter; E - 8th; S - 16th; T - 32nd; X - 64th; a - acciaccatura
+ - note tied to previous; . - note dotted; .. - note double dotted
Uncapitalized letters represent notes that are staccato (1/2 duration)
Irregular groupings are notated above the duration line
Duration letters will always appear directly above the note/fret number it represents the
duration for.  Duration letters with no fret number below them represent rests.  Multi-
bar rests are notated in the form Wxn, where n is the number of bars to rest for.  Low
melody durations appear below the staff

Tablature Legend
----------------
 h   - hammer-on
 p   - pull-off
 b   - bend
 pb  - pre-bend
 r   - bend release (if no number after the r, then release immediately)
 /\  - slide into or out of (from/to "nowhere")
 s   - legato slide
 S   - shift slide
  - natural harmonic
[n]  - artificial harmonic
n(n) - tapped harmonic
 ~   - vibrato
 tr  - trill
 T   - tap
 TP  - trem. picking
 PM  - palm muting
\n/  - tremolo bar dip; n = amount to dip
 \n  - tremolo bar down
 n/  - tremolo bar up
/n\  - tremolo bar inverted dip
 =   - hold bend; also acts as connecting device for hammers/pulls
 <>  - volume swell (louder/softer)
 x   - on rhythm slash represents muted slash
 o   - on rhythm slash represents single note slash

Misc Legend
-----------
 |  - bar
||  - double bar
||o - repeat start
o|| - repeat end
*|  - double bar (ending)
 :  - bar (freetime)
 $  - Segno
 &  - Coda
Tempo markers -  = BPM(8/16=s8/s16), where s8 = swing 8ths, s16 = swing 16ths
Добавлено: 02.06.2012
Другие материалы по этой песне:

Страница создана 04.03.2012
http://primanota.ru/shadows/36-24-36-chords.htm
Привет, Гость.
Предлагаем пройти революционный курс по гитаре.
Подарок от PrimaNota.Ru, забирай!