PrimaNota.ru - самый крупный в мире бесплатный архив песенных текстов, аккордов, табулатур и нот


Shadows Fall - What Drives The Weak - текст песни, таба, бас-таба, драм-таба, видео

Регистрация Запомнить меня
Войти через:  Facebook Google Twitter Vk Yandex Mail.ru

Shadows Fall - What Drives The Weak - текст песни, таба, бас-таба, драм-таба, видео

Печатать
Просмотров: 202
Tuning:Drop-D down 1 step (C-G-C-F-A-D)

I don't have enough time to write down the rest
but I'm pretty sure this is as close as you can get it. unless you get it out of a book.


What drives the weak by Shadows fall
-------------------------------------|                                        *=pinch harmonics
 D-----------------------------------|
 A-----------------------------------|
 F-----------------------------------|
 C-------5-------7------0-----0---0--|
 G-3-0-3-3-3-0-3-5--0-0-0-0-0-0-0-0--| x3
 C-3-0-3---3-0-3----0-0-0-0-0-0-0-0--|
pm . . .   . . .    . .   . .   .

 D---------------------1-1-1-1|
 A-------------1-1-1-1-1-1-1-1|
 F-------3-3-3-3-3-3-3-3-3-3-3|
 C-3-3-3-3-3-3-3-3-3-3-3-3-3-3|
 G-1-1-1-1-1-1-1-1-1-1-1-1-1-1|
 C----------------------------|
pm . . .

 D------------------------------------------------------------|
 A------------------------------------------------------------|
 F-----------------------------------------------------7/10\9-|
 C-------5-----7-----------------------5-----7---------x------|
 G-3-0-3-3-3-0-5---0-5-0-7-8--0--3-0-3-3-3-0-5---0-5-0-5/8\-7-|
 C-3-0-3---3-0-----0-5-0-7-8--0--3-0-3---3-0-----0-5-0--------|
pm     .           .   .      .      .           .   .

 D--------------------------|
 A--------------------------|
 F--------------------------|
 C-------5-----7------------|
 G-3-0-3-3-----5-0-5-0-7-8*-|
 C-3-0-3---3-0---0-5-0-7----|
pm     .         .   .

 D----------------1----------------|
 A------1---------1--------/6-6----|
 F-----0---0-----0-------0---------|
 C----3-----3---3------------------|
 G---1-------0---------------------|
 C-0-------------------------------|
pm           .                .

#1 solo

 D------------------------------------8-8/10-13-13p10h13-15~-|
 A--6p5------------------------------------------------------|
 F-----7p5h7*---10h12-12b------------------------------------|
 C--------------10h12-12b-12p10-9-10*------------------------|
 G-----------------------------------------------------------|
 C-----------------------------------------------------------|

 D---12-13--15p12------|
 A--x------------13----|
 F-x---------------15~-|
 C---------------------|
 G---------------------|
 C---------------------|

 D-21b-21b~----------21-------15/18-17-13----------|
 A----------15/17-18----17h18------------13-13/15~-|
 F-------------------------------------------------|
 C-------------------------------------------------|
 G-------------------------------------------------|
 C-------------------------------------------------|
Добавлено: 24.06.2012
Другие материалы по этой песне:

Страница создана 15.03.2012
http://primanota.ru/shadows-fall/what-drives-the-weak-chords.htm
Привет, Гость.
Предлагаем пройти революционный курс по гитаре.
Подарок от PrimaNota.Ru, забирай!