PrimaNota.ru - самый крупный в мире бесплатный архив песенных текстов, аккордов, табулатур и нот


Shadows Fall - To Ashes - аккорды и текст, таба, видео

Регистрация Запомнить меня
Войти через:  Facebook Google Twitter Vk Yandex Mail.ru

Shadows Fall - To Ashes - аккорды и текст, таба, видео

Печатать
Просмотров: 137
To Ashes
Shadows Fall
		   This is one of the coolest riffs ever     Shadows fall deserves more respect




Riff 1
|--------------------|---------------------------|
|--------------------|---------------------------|
|--------------------|---------------------------|
|-----5-----5-4-5----|---------------------------|
|--------------------|-----7-----7-6-------------|
|-000---000----------|-000---000-----8-----------|


Riff 2
|--------------------|---------------------------|
|--------------------|---------------------------|
|--------------------|---------------------------|
|-----9---9---7h9----|-----7---7p5---------------|
|-7-7---7---7--------|-5-5---5-----7-------------|
|--------------------|---------------------------|

|--------------------|---------------------------|
|--------------------|---------------------------|
|-9------------------|-7-------------------------|
|-9------------------|-7-------------------------|
|-7------------------|-5-------------------------|
|--------------------|---------------------------|

  Acoustic riff

|-0--0-0-0---3--2-2-0|-1-1-1-0--3--2-2-0---------|
|-1--1-1-1---0--0-0-0|-1-1-1-0--0--0-0-0---------|
|-2--2-2-2---0--0-0-0|-2-2-2-0--0--0-0-0---------|
|-2--2-2-2---0--0-0-0|-3-3-3-0--0--0-0-0---------|
|-0--0-0-0---2--2-2--|-3-3-3----2--2-2-----------|
|------------3--3-3--|-1-1-1----3--3-2-----------|

Riff 4

|-0--0-0-0---3--2-2-0|-1-1-1-0--3--2-2-0---------|
|-1--1-1-1---0--0-0-0|-1-1-1-0--0--0-0-0---------|
|-2--2-2-2---0--0-0-0|-2-2-2-0--0--0-0-0---------|
|-2--2-2-2---0--0-0-0|-3-3-3-0--0--0-0-0---------|
|-0--0-0-0---2--2-2--|-3-3-3----2--2-2-----------|
|------------3--3-3--|-1-1-1----3--3-2-----------|

|------------------------------------------------|
|------------------------------------------------|
|------------------------------------------------|
|-10---9-7---9-10---14-12--------10-12-----------|
|--------------------------12-14-----------------|
|------------------------------------------------|

|------------------------------------------------|
|------------------------------------------------|
|------------------------------------------------|
|-10---9-7---9-10--10-9-7----7h9-----------------|
|-------------------------10---------------------|
|------------------------------------------------|



Fill 2

|-0------------------|---------------------------|
|-1------------------|---------------------------|
|-2------------------|---------------------------|
|-2------------------|---------------------------|
|-0------------------|---------------------------|
|--------------------|---------------------------|

Riff 5

|------------------------------------------------|
|------------------------------------------------|
|------------------------------------------------|
|-10"--9"--7"--9"--10"--14"--12"-----------------| " is tremolo picking
|------------------------------------------------|
|------------------------------------------------|

|------------------------------------------------|
|------------------------------------------------|
|------------------------------------------------|
|------------------------------------------------|
|-10"--9"--7"--9"--10"--14"--12"-----------------|
|------------------------------------------------|

Riff 6
|------------------------------------------------|
|------------------------------------------------|
|------------------------------------------------|
|-7---7-5---5-3-----3-----5----------------------|
|-7---7-5---5-3-----3-----5----------------------|
|-5---5-3---3-1-0-0-1-0-0-3----------------------|

|------------------------------------------------|
|------------------------------------------------|
|------------------------------------------------|
|-7---7-10---10-3---3-5--------------------------|
|-7---7-10---10-3---3-5--------------------------|
|-5---5-8----8--1---1-3--------------------------|

|------------------------------------------------|
|------------------------------------------------|
|------------------------------------------------|
|-10---9-7---9-10---14-12--------10-12-----------|
|--------------------------12-14-----------------|
|------------------------------------------------|

|------------------------------------------------|
|------------------------------------------------|
|------------------------------------------------|
|-10---9-7---9-10--10-9-7----7h9-----------------|
|-------------------------10---------------------|
|------------------------------------------------|

Riff 7
"Deep inside me..."

|------------------------------------------------|
|------------------------------------------------|
|------------------------------------------------|
|-7-7----------5-5---------3-3---------5-5-----5-|
|-7-7-7---7p5--5-5-5---5p3-3-3-3---3p1-5-5-5-----|
|-5-5---5------3-3---3-----1-1---1-----3-3---3---|

|------------------------------------------------|
|------------------------------------------------|
|------------------------------------------------|
|-7------------5-----------3-3---------5-5-----5-|
|-7------------5-----------3-3-3---3p1-5-5-5-----|
|-5------------3-----------1-1---1-----3-3---3---|

Fill 3

|------------------------------------------------|
|------------------------------------------------|
|------------------------------------------------|
|-10-9-10-12-10-9-10----10-9----9----------------|
|--------------------12------10---10-7-----------|
|------------------------------------------------|

|------------------------------------------------|
|------------------------------------------------|
|-10-9-10-12-10-9-10----10-9----9----------------|
|--------------------12------10---10-9-----------|
|------------------------------------------------|
|------------------------------------------------|

Fill 4

|------------------------------------------------|
|------------------------------------------------|
|------------------------------------------------|
|-3-----3-----3---5------------------------------|
|-3-----3-----3---5------------------------------|
|-1-0-0-1-0-0-1-0-3------------------------------|

Riff 8

|------------------------------------------------|
|------------------------------------------------|
|-5----------5-3-----5----------5-3--------------|
|-5----------5-3-----5----------5-3--------------|
|-3----------3-1-----3----------3-1--------------|
|--------0-0------0----------0-0-----------------|

|------------------------------------------------|
|------------------------------------------------|
|------------------------------------------------|
|-6----------8-8-----4---4---3-3-3---------------|
|-6----------8-8-----4---4---3-3-3---------------|
|-4------0-0-6-6--0--2-0-2---1-1-1---------------|



         Comments @ foamyanaldouche@yahoo.com     
Добавлено: 25.08.2013
Другие материалы по этой песне:

Страница создана 22.04.2012
http://primanota.ru/shadows-fall/to-ashes-chords.htm
Привет, Гость.
Предлагаем пройти революционный курс по гитаре.
Подарок от PrimaNota.Ru, забирай!