PrimaNota.ru - самый крупный в мире бесплатный архив песенных текстов, аккордов, табулатур и нот


Shadows Fall - Teasn Pleasn - таба, бас-таба, видео

Регистрация Запомнить меня
Войти через:  Facebook Google Twitter Vk Yandex Mail.ru

Shadows Fall - Teasn Pleasn - таба, бас-таба, видео

Печатать
Просмотров: 127
----------------------------------------------------------------------------
               Teas'n Pleas'n - shadows fall (dangerous toys cover)
----------------------------------------------------------------------------

Tabbed By: sean crow
Email: die_for_noting323@hotmail.com

Tuning: standard        Im so glad that shadows fall covered this song 'cos
                        i love it!! This is not shadows fall's own song! Its
                        a dangerous toys cover!! this was fairly simple to 
                        tab (minus the solo) which i cant get started with!
                        PLEASE RATE AND COMMENT ON THIS ONE!!!  enjoy!

E|--------------------------------|
B|--------------------------------|
G|--------------------------------|
D|-2-2-------------2-2------------| X4
A|-0-0-3-4---------0-0-3-4--------|
E|---------2-3-2-3---------2-3-2--|
    

E|--------------|   E|--------------------------------|
B|--------------|   B|--------------------------------| REPEAT line twice
G|----7-10-12---|   G|--------------------------------|   2nd time play last
D|-7--5-8--10---|   D|-2-2-------------2-2------------|    part 2x
A|-5------------|   A|-0-0-3-4---------0-0-3-4--------|
E|--------------|   E|---------2-3-2-3---------2-3-2--|
  

E|--------------------------| E|--------------------------------|
B|--------------------------| B|--------------------------------| 
G|--------------------------| G|--------------------------------| play last 
D|-7-7-7-7-7----------------| D|-2-2-------------2-2------------| part 2x
A|-5-5-5-5-5-7-8-8-8-8-8-5--| A|-0-0-3-4---------0-0-3-4--------|
E|-----------5-6-6-6-6-6-3--| E|---------2-3-2-3---------2-3-2--|

E|--------------|   E|--------------------------------|
B|--------------|   B|--------------------------------| REPEAT line twice
G|----7-10-12---|   G|--------------------------------|   2nd time play last
D|-7--5-8--10---|   D|-2-2-------------2-2------------|    part 2x
A|-5------------|   A|-0-0-3-4---------0-0-3-4--------|
E|--------------|   E|---------2-3-2-3---------2-3-2--|

E|--------------------------| E|--------------------------------|
B|--------------------------| B|--------------------------------| 
G|--------------------------| G|--------------------------------| play last 
D|-7-7-7-7-7----------------| D|-2-2-------------2-2------------| part 2x
A|-5-5-5-5-5-7-8-8-8-8-8-5--| A|-0-0-3-4---------0-0-3-4--------|
E|-----------5-6-6-6-6-6-3--| E|---------2-3-2-3---------2-3-2--|

E|--------------------------------------------------------|----------------|
B|--------------------------------------------------------|----------------|
G|------------------------------------------------play 2x-|----------------|
D|--------------------------------------------------------|----------------|
A|-2----4---5---4-------4---5-4-2-5---------7-5---------7-|-9-9-9-9-9-9-9-9|
E|-0--0---0---0---0-0-0---0-------3-3-3-3-3-5-3-3-3-3-3-5-|-7-7-7-7-7-7-7-7|
      .   .   .   . . .   .         . . . .     . . . .     . . . . . . . . 

E|------------------------------|   E|------------------------------|   R
B|------------------------------|   B|------------------------------|   e
G|------------------------------|   G|------------------------------|   p
D|-----------------------5-7-5-7|X2 D|-----------------------7-9-7-7|X2 e
A|-----------5-4-----5-5-5-5-3-5|   A|-----------5-4-----5-5-7-7-5-5|   a
E|-0-0-0-3-0-----0-3-----3---3--|   E|-0-0-0-3-0-----0-3-----5---5--|   t 
    
  BASS AND DRUMS PLAY!

E|--------------------------------------|
B|--------------------------------------|
G|--------------------------------------|
D|-2-2----------------------2--2--------|  X4
A|-0-0-3-4------------------0--0--3--4--|
E|---------2--3--3--2--3--3-------------|
    

E|--------------------------------|
B|--------------------------------|
G|--------------------------------|
D|-2-2-------------2-2------------| X16   --2--
A|-0-0-3-4---------0-0-3-4--------|       --0--   THE END
E|---------2-3-2-3---------2-3-2--|       -----
Добавлено: 26.06.2012
Другие материалы по этой песне:
  • Аккорды и текст

Страница создана 26.06.2012
http://primanota.ru/shadows-fall/teasn-pleasn-chords.htm
Привет, Гость.
Предлагаем пройти революционный курс по гитаре.
Подарок от PrimaNota.Ru, забирай!