PrimaNota.ru - самый крупный в мире бесплатный архив песенных текстов, аккордов, табулатур и нот


Shadows Fall - Ghosts Of Past Failures - текст песни, таба, видео

Регистрация Запомнить меня
Войти через:  Facebook Google Twitter Vk Yandex Mail.ru

Shadows Fall - Ghosts Of Past Failures - текст песни, таба, видео

Печатать
Просмотров: 73


Tabber: Jared D. Phillipsamp; Kevin Kogot.
Artist: Shadows Fall
Album: The War Within
Song: Ghosts Og Past Failures ( Track #8 )
Tuning: Dropped C ( C G C F A D )

Intro 
*Rhythm*
(Just Chords here, i havnt tabbed the strumming pattern.)
|-------------------|
|-------------------|
|-------------------|
|-2---5---5---5---7-|
|-2---5---3---5---7-|
|-2---5-------5---7-|

*Lead* 
|-----------------------------------------------------------------------|
|-----------------------------------------------------------------------|
|-12-12-14-14-10~-10-10-12-12-14-14-9~--9-9--12-12-14-14-14/15~-12~-14~-|
|-----------------------------------------------------------------------|
|-----------------------------------------------------------------------|
|-----------------------------------------------------------------------|



Preverse *Both*
|------------------------------------------------------------------------------|
|------------------------------------------------------------------------------|
|-----9---7-7--7----------9---5-5--5----------9---4-4--4-----4-----------------|
|-7-0-9-0-7-7--7------7-0-9-0-5-5--5------7-0-9-0-4-4--4-----4---7----8-8----8-|
|-7-0-7-0-5-5--5-00---7-0-7-0-3-3--3-00---7-0-7-0-2-2--2-----2-0-7----8-8----8-|
|-7-0---0----00--00---7-0---0----00--00---7-0---0----00---00---0-7-00-8-8-00-8-|
PM           --  --         --   --  --              --   --   -   --     --



Bridge
*Lead* 
[Clean]
(The Ghost, of Past Failures.)
|-----------------------------------------------------------|
|-----------------------------------------------------------|
|------9------------9----------------12-------------10------|
|---9-----9-10---9-----9-10------12----12--12----9----10-10-|
|--7-7---7------7-7---7--------10--10----10-----7-7-----8---|
|-7------------7-------------10----------------7------------|

_

Verse 1 
*Both*
(Facing, the reality.)
|-------------------------------------------------------------------|
|-------------------------------------------------------------------|
|-------------------------------------------------------------------|
|-7---7p0-10p0------------------------------------------------------|
|-7---7p0-10p0-------3p0-2p0-0-00-3p0-5p3-3-00-3p0-2p0-0-00-3p0-5p0-|
|-7---7p0-10p0--0-xx------------------------------------------------|
PM                             --           --           --


(Of our own, imperfections.)
|-------------------------------------------------------------------|
|-------------------------------------------------------------------|
|-------------------------------------------------------------------|
|-7---7p0-10p0------------------------------------------------------|
|-7---7p0-10p0-------3p0-2p0-0-00-3p0-5p3-3-00-3p0-2p0-0-00-3p0-5---|
|-7---7p0-10p0--0-xx------------------------------------------------|
PM                             --           --           --


(The waves crash, without warning.)
|--------------------------------------|
|--------------------------------------|
|--------------------------------------|
|----------3/5---5----2h3p2-3333333333-|
|-2--2--2h3----0---00-------3333333333-|
|--0--0---------------------3333333333-| X4
PM -  -        -   --



Fill 1 
*Both*
|-----------|
|-----------|
|-----5-----|
|-3-5-5-3-5-|
|-3-5-3-3-5-|
|-3-5---3-5-|



Chorus 
(I am, still bleeding you. From wounds you never known.)
*Both*
|------------------------------------------------------------------------------|
|------------------------------------------------------------------------------|
|-----9---7-7--7----------9---5-5--5----------9---4-4--4-----4-----------------|
|-7-0-9-0-7-7--7------7-0-9-0-5-5--5------7-0-9-0-4-4--4-----4---7----8-8----8-|
|-7-0-7-0-5-5--5-00---7-0-7-0-3-3--3-00---7-0-7-0-2-2--2-----2-0-7----8-8----8-|
|-7-0---0----00--00---7-0---0----00--00---7-0---0----00---00---0-7-00-8-8-00-8-| X2
PM           --  --         --   --  --              --   --   -   --     --




Verse 2 
*Both*
(The core, of our being.)
|-------------------------------------------------------------------|
|-------------------------------------------------------------------|
|-------------------------------------------------------------------|
|-7---7p0-10p0------------------------------------------------------|
|-7---7p0-10p0-------3p0-2p0-0-00-3p0-5p3-3-00-3p0-2p0-0-00-3p0-5p0-|
|-7---7p0-10p0--0-xx------------------------------------------------|
PM                             --           --           --


(Torn out and, cast aside.)
|-------------------------------------------------------------------|
|-------------------------------------------------------------------|
|-------------------------------------------------------------------|
|-7---7p0-10p0------------------------------------------------------|
|-7---7p0-10p0-------3p0-2p0-0-00-3p0-5p3-3-00-3p0-2p0-0-00-3p0-5---|
|-7---7p0-10p0--0-xx------------------------------------------------|
PM                             --           --           --


(I never looked, this far away.)
|--------------------------------------|
|--------------------------------------|
|--------------------------------------|
|----------3/5---5----2h3p2-3333333333-|
|-2--2--2h3----0---00-------3333333333-|
|--0--0---------------------3333333333-| X4
PM -  -        -   --


Fill 2 
*Both*
|-----------|
|-----------|
|-----5-----|
|-3-5-5-3-5-|
|-3-5-3-3-5-|
|-3-5---3-5-|



Chorus 2 
(I am, still bleeding you. From wounds you never known.)
*Both*
|------------------------------------------------------------------------------|
|------------------------------------------------------------------------------|
|-----9---7-7--7----------9---5-5--5----------9---4-4--4-----4-----------------|
|-7-0-9-0-7-7--7------7-0-9-0-5-5--5------7-0-9-0-4-4--4-----4---7----8-8----8-|
|-7-0-7-0-5-5--5-00---7-0-7-0-3-3--3-00---7-0-7-0-2-2--2-----2-0-7----8-8----8-|
|-7-0---0----00--00---7-0---0----00--00---7-0---0----00---00---0-7-00-8-8-00-8-| X2
PM           --  --         --   --  --              --   --   -   --     --



Interlude 
[Clean]
*Rhythm* {Lead keeps the last note of the chorus ringing}
|-----------------------------------------------|
|-----------------------------------------------|
|----9--------9-10------9--------9--------9-----|
|---9-9-10---9----10---9-9-10-----9-10-----9-10-|
|--7--------7---------7-------------------------|
|-7--------7---------7---------7--------7-------| X2



Solo
*Rhythm* 
|---------------------------------------------------------------------------------|
|---------------------------------------------------------------------------------|
|---------------------------------------------------------------------------------|
|-7777-7-77777-101010-101010-10-1010-1010-0-5-55-555-5-550-3-3333-3333-3-222-2222-|
|-7777-7-77777-101010-101010-10-1010-1010-0-5-55-555-5-550-3-3333-3333-3-222-2222-|
|-7777-7-77777-101010-101010-10-1010-1010-0-5-55-555-5-550-3-3333-3333-3-222-2222-|X2
PM----   ----         ------    ----          -- --- -            ---


|-------------------------------------------------------|
|-------------------------------------------------------|
|-------------------------------------------------------|
|-------------------------------------------------------|
|------10--8-----10--10-----8----------10-8---10-10---8-|
|-10-10--10-10-10--10--10-10--10-10-8-8--8-8-8--8--8-8--| X2
PM-- --  -- -- --  --  -- --  -- -- - -  - - -  -  - -


|---------------------------------------------------------------------------------|
|---------------------------------------------------------------------------------|
|---------------------------------------------------------------------------------|
|-7777-7-77777-101010-101010-10-1010-1010-0-5-55-555-5-550-3-3333-3333-3-222-2222-|
|-7777-7-77777-101010-101010-10-1010-1010-0-5-55-555-5-550-3-3333-3333-3-222-2222-|
|-7777-7-77777-101010-101010-10-1010-1010-0-5-55-555-5-550-3-3333-3333-3-222-2222-|
PM----   ----         ------    ----          -- --- -            ---

(Just Chords here, i havnt tabbed the strumming pattern.)

|-------------------|
|-------------------|
|-------------------|
|-2---5---5---5---7-|
|-2---5---3---5---7-|
|-2---5-------5---7-|

*Lead* 
|--------------------------------------------------------------------------------------------------|
|--------------------------------------------------------------------------------------------------|
|14~-14p12-14p12-----------------------------------------------------------------------------------|
|----------------15p14-14p12-1210-10/12-12h14~-15-14-12-10~-10-9-------------------------10-x-12-14
|----------------------------------------------------------------12-10~-108-8-x-10-x-12-x----------|
|--------------------------------------------------------------------------------------------------|


|----------------------------------------------------------------------------------------------------------------|
|-------0h15h17-0h13h15-------0h15h17-0h13h15-------0h15h17-0h13h15-------0h15h17-0h13h15-------0h15h17-17p15-13-|
|0h15h17---------------0h15h17---------------0h15h17---------------0h15h17---------------0h15h17-----------------|
|----------------------------------------------------------------------------------------------------------------|
|----------------------------------------------------------------------------------------------------------------|
|----------------------------------------------------------------------------------------------------------------|


|---15-22p15--20p15--19p15--20p15--19p15-------------------------------------|
|-17--------17-----17-----17-----17-----17-15~-15/17-17/19-19/20-20/22^(24)~-|
|----------------------------------------------------------------------------|
|----------------------------------------------------------------------------|
|----------------------------------------------------------------------------|
|----------------------------------------------------------------------------|


|------------------------------------------------------------------------------------------------------|
|------------------------------------------------------------------------------------------------------|
|--------0h15h17-0h17h19-------0h15h17-0h17h19-------14^(15)v(14)^(15)--14^(15)v(14)--14^(15)v(14)-----|
|-0h15h17---------------0h15h17---------------0h15h17-----------------17------------17------------17-15|
|------------------------------------------------------------------------------------------------------|
|------------------------------------------------------------------------------------------------------|


|---------------------------------------------------------------------|
|-------------------------------------------20----18----16----15------|
|---17--19--20--19--17--19--20--19--17----17----17----17----17-----17-|
|-17--17--17--17--17--17--17--17--17----17----17----17----17-----17---|
|---------------------------------------------------------------------|
|---------------------------------------------------------------------|

|-20p19p17p15-----------20p19p17p15-----------20p19p17p15-----------20p19p17p15-----------20p19p17p15------------|
|------------20p19p17p15-----------20p17p17p15-----------20p19p17p15-----------20p19p17p15-----------20p19p17p15-|
|----------------------------------------------------------------------------------------------------------------|
|----------------------------------------------------------------------------------------------------------------|
|----------------------------------------------------------------------------------------------------------------|
|----------------------------------------------------------------------------------------------------------------|


|-20p19p17p15------------------------------------------------|
|------------20p19p17p15-------------------------------------|
|-----------------------20p19p17p15-20p19p17p15-15h17-15h17~-|
|------------------------------------------------------------|
|------------------------------------------------------------|
|------------------------------------------------------------|

Shread-------------------------------------------------------------------------------------------------
|-------------------------------------------------------------------------------------------------------|
|-------------------------------------------------------------------------------------------------------|
|--------------------------------------------------------------------17-15-17-15-17-15------------------|
|------------------17-15-17-15-17-15----------------17-15-17-15-17-15-----------------17-15-17-15-17-15-|
|-17-15-17-15-17-15-----------------17-15-17-15-17-15---------------------------------------------------|
|-------------------------------------------------------------------------------------------------------|


(At the end of this part where it has 17, tap 20 and pull off to 17 a couple of times.)
Shread--------------------------------------------------------------------------------------------------
|---------------------------------------------------------------------17-15-17-15-17-15-----------------15~-17~-|
|------------------17-15-17-15-17-15-----------------17-15-17-15-17-15-----------------17-15-17-15-17-15--------|
|-17-15-17-15-17-15-----------------17-15-17-15-17-15-----------------------------------------------------------|
|---------------------------------------------------------------------------------------------------------------|
|---------------------------------------------------------------------------------------------------------------|
|---------------------------------------------------------------------------------------------------------------|

|-----------------------------------------------------------------------|
|-----------------------------------------------------------------------|
|-12-12-14-14-10~-10-10-12-12-14-14-9~--9-9--12-12-14-14-14/15~-12~-14~-|
|-----------------------------------------------------------------------|
|-----------------------------------------------------------------------|
|-----------------------------------------------------------------------|
_____________________________________________________________________________________________________

Ending 
(I am, still bleeding you. From wounds you never known.)
*Both*
|------------------------------------------------------------------------------|
|------------------------------------------------------------------------------|
|-----9---7-7--7----------9---5-5--5----------9---4-4--4-----4-----------------|
|-7-0-9-0-7-7--7------7-0-9-0-5-5--5------7-0-9-0-4-4--4-----4---7----8-8----8-|
|-7-0-7-0-5-5--5-00---7-0-7-0-3-3--3-00---7-0-7-0-2-2--2-----2-0-7----8-8----8-|
|-7-0---0----00--00---7-0---0----00--00---7-0---0----00---00---0-7-00-8-8-00-8-| X3
PM           --  --         --   --  --              --   --   -   --     --
_____________________________________________________________________________________________________ That's All Peoples, once again, another, unbeleivable entry, From the youngest guitar master, known to man XD


Добавлено: 17.09.2013
Другие материалы по этой песне:

Страница создана 29.05.2012
http://primanota.ru/shadows-fall/ghosts-of-past-failures-chords.htm
Привет, Гость.
Предлагаем пройти революционный курс по гитаре.
Подарок от PrimaNota.Ru, забирай!