PrimaNota.ru - самый крупный в мире бесплатный архив песенных текстов, аккордов, табулатур и нот


Shadow Gallery - Cliffhanger - текст песни, таба, видео

Регистрация Запомнить меня
Войти через:  Facebook Google Twitter Vk Yandex Mail.ru

Shadow Gallery - Cliffhanger - текст песни, таба, видео

Печатать
Просмотров: 72
Уроки эстрадного вокала в Санкт-Петербурге
Авторы музыки: W.B. Allman
Авторы текста: Mike Baker, Carl Cadden-James
Song: Cliffhanger
Artist: Shadow Gallery
Album: Carved In Stone

Guitar Tab transcribed by Rahul Chacko
prognut@rediffmail.com



 	Hi, fellow tab-users. I tried looking for this tab around a year 
ago, and after failing to find it anywhere, gave it up. 
Eventually, with a little effort, I was able to figure out the 
basic structure of the song on my own. I thought I'd try putting 
out a tab to help those in the same predicament that I was.

 	As I'm new to the tabbing scene, I decided not to attempt 
transcribing the solos and the tricky technical interlude in the 
middle of the song. The song itself is very clearly divided into 
distinct rhythm patterns (apart from the interlude), so I haven't 
bothered to specify how many times to play a particular sequence. 
If you're familiar with the track, you should be able to wing 
it.

 	If you feel you can improve on this tab, or want to use it 
elsewhere, feel free. I could have screwed up here and there 
(criminal for something this simple, I know), so any feedback or 
general comments would be appreciated. Also if someone knows where 
I could find more Shadow Gallery guitar tabs, I'd be grateful if 
they could let me know. mailto: prognut@rediffmail.com
Cheers!


***

(Intro)

Guitar 1

Rhythm Pattern I:

E---------------------------|--------------------0-----|------------------------
B---------------------------|--------------0-----------|------------------------
G------------0-----------0--|--------0--------0--------|------------------------
D---------4-----------4-----|-----4-----4--------------|------------------------
A------7-----------7--------|--6-----------------------|------------------------
E---0-----------------------|--------------------------|------------------------


E---------------------------|--------------------0-----|------------------------
B---------------------------|--------------0--------0--|------------------------
G---------0-----------0-----|--------0--------0--------|------------------------
D------4-----4-----4-----4--|-----4-----4--------------|------------------------
A---------------------------|--------------------------|------------------------
E---7-----------7-----------|--6-----------------------|------------------------



Rhythm Pattern II:
E------------------------------|--------------------------|---------------------
B------------3-----------3-----|--------3-----------3-----|---------------------
G---------------5-----------5--|-----------5-----------5--|---------------------
D---------5-----------5--------|-----6-----------6--------|---------------------
A------3-----------3-----------|--3-----------3-----------|---------------------
E------------------------------|--------------------------|---------------------


E---------------------------|---------------------------------------------------
B---------------0-----------|---------------------------------------------------
G------------2-----2--------|---------------------------------------------------
D---------3-----------3-----|---------------------------------------------------
A------3-----------------3--|---------------------------------------------------
E---1-----------------------|---------------------------------------------------





Guitar 2 (distortion/chorus):

E----------------7--------|------------7---------|------------7--------|--------
B------8~~~--10-----7~~~--|--8~~~--10-----11~~~--|--8~~~--10-----7~~~--|--------
G-------------------------|----------------------|---------------------|--------
D-------------------------|----------------------|---------------------|--------
A-------------------------|----------------------|---------------------|--------
E-------------------------|----------------------|---------------------|--------


E-------------7--7~~~--11~~~--|--12~~~--------------(12)--||--------------------
B---8~~~--10------------------|---------------(12)--------||--------------------
G-----------------------------|---------------------------||--------------------
D-----------------------------|---------------------------||--------------------
A-----------------------------|---------------------------||--------------------
E-----------------------------|---------------------------||--------------------



(Main Riff)

E----------------------------|---------------------------|----------------------
B----------------------------|---------------------------|----------------------
G------9--------9--9--10-----|-----9--------9--10-----5--|----------------------
D------9--------9--9--10-----|-----9--------9--10-----5--|----------------------
A------7--------7--7--8------|-----7--------7--8------3--|----------------------
E------0--------0--0--0------|-----0--------0--0---------|----------------------



(Bridge) "I steal away..."

E---------------------|--------------|--------------|--------------|------------
B---------------------|--------------|--------------|--------------|------------
G---------4-----5-----|--7-----2-----|--4-----5-----|--7-----2-----|------------
D---------4-----5-----|--7-----2--2--|--4-----5-----|--7-----2--2--|------------
A---------2-----3-----|--5-----0--2--|--2-----3-----|--5-----0--2--|------------
E---------------------|-----------0--|--------------|-----------0--|------------



(Chorus) "I'm not so sure that..."

E-------------------|-----------------|---------------|-----------------|-------
B-------------------|-----------------|---------------|-----------------|-------
G------------10-----|--7-----5--5--7--|--------10-----|--7-----5--5--4--|-------
D------7-----10-----|--7-----5--5--7--|--7-----10-----|--7-----5--5--5--|-------
A------7-----8------|--5-----3--3--5--|--7-----8------|--5-----3--3--2--|-------
E------5------------|-----------------|--5------------|-----------------|-------


***


Tab Symbols:

  ~~~ - vibrate
  (#) - harmonic on fret #




     
Добавлено: 10.08.2013
Другие материалы по этой песне:

Страница создана 22.04.2012
http://primanota.ru/shadow-gallery/cliffhanger-chords.htm
Привет, Гость.
Предлагаем пройти революционный курс по гитаре.
Подарок от PrimaNota.Ru, забирай!