PrimaNota.ru - самый крупный в мире бесплатный архив песенных текстов, аккордов, табулатур и нот


Shades - When You Said Goodbye - бас-таба, видео

Регистрация Запомнить меня
Войти через:  Facebook Google Twitter Vk Yandex Mail.ru

Shades - When You Said Goodbye - бас-таба, видео

Печатать
Просмотров: 73
Tabbed by: 6METAL6BASSIST6
E-mail: petergriffinav@gmail.com

Tuning: EADG

G|----------------------------------------------------------------|
D|----------------------------------------------------------------|
A|0-----------2-----------3-----------5-----------5-------5-------|
E|----------------------------------------------------------------|

0:06

G|----------------------------------------------------------------|.
D|5-----------5---------------5---5-----------5---------------5---|.
A|----5---7-----------5---7-----------5---7-----------5---7-------|.
E|----------------------------------------------------------------|.
                                                                   . x2
G|----------------------------------------------------------------|.
D|7-------5---7-----------5---7---7-------5---7-----------5---7---|.
A|----7---------------7---------------7---------------7-----------|.
E|----------------------------------------------------------------|.

0:20

G|----------------------------------------------------------------|
D|9-------7---9-------7-------7---9---7-------9-------7-------7---|
A|----9-------------------9---------------9---------------9-------|
E|----------------------------------------------------------------|

G|----------------------------------------------------------------|
D|7---5-------7-------5-------5---7---5-------7-------5-----------|
A|--------7---------------7---------------7---------------7-------|
E|----------------------------------------------------------------|

G|------------------------------/-7-----/-7-----/-7-----/-7-------|
D|----------------------------------------------------------------|
A|5---------------------------------------------------------------|
E|----------------------------------------------------------------|

G|----------------------------------------------------------------|
D|5-----------5---------------5---7-------5---7-----------5---7---| x2
A|----5---7-----------5---7-----------7---------------7-----------|
E|----------------------------------------------------------------|

0:37

G|----------------------------------------------------------------|.
D|5-----------5---------------5---5-----------5---------------5---|.
A|----5---7-----------5---7-----------5---7-----------5---7-------|.
E|----------------------------------------------------------------|.
                                                                   . x2
G|----------------------------------------------------------------|.
D|7-------5---7-----------5---7---7-------5---7-----------5---7---|.
A|----7---------------7---------------7---------------7-----------|.
E|----------------------------------------------------------------|.

0:51

G|----------------------------------------------------------------|
D|9---7-------9-------7-------7---9---7-------9-------7---4---5---|
A|--------9---------------9---------------9-----------------------|
E|----------------------------------------------------------------|

G|----------------------------------------------------------------|
D|7---5-------7-------5-------5---7---5-------7-------5-------7---|
A|--------7---------------7---------------7---------------7-------|
E|----------------------------------------------------------------|

G|------------------------------/-7-----/-7-----/-7-----/-7-------|
D|----------------------------------------------------------------|
A|5---------------------------------------------------------------|
E|----------------------------------------------------------------|

G|----------------------------------------------------------------|
D|5-----------5---------------5---7-------5---7-----------5---7---|
A|----5---7-----------5---7-----------7---------------7-----------|
E|----------------------------------------------------------------|

G|----------------------------------------------------------------|
D|5-----------5---------------5---7-------------------------------|
A|----5---7-----------5---7---------------------------------------|
E|----------------------------------------------------------------|

1:08

G|----------------------------------------------------------------|
D|----------------------------------------------------------------|
A|7---------------------------7---5---------------------------5---|
E|----------------------------------------------------------------|

G|----------------------------------------------------------------|
D|----------------------------------------------------------------|
A|3---------------------------3---5---------------------------5---|
E|----------------------------------------------------------------|

G|----------------------------------------------------------------|
D|----------------------------------------------------------------|
A|7-------------------------------5---------------------------5---|
E|----------------------------------------------------------------|

G|--------------------------------------------------------------/-|
D|----------------------------------------------------------------|
A|3---------------------------3---5---------------5-------5-------|
E|----------------------------------------------------------------|

G|7-----/-7-----/-7-----/-7-------|
D|--------------------------------|
A|--------------------------------|
E|--------------------------------|

1:23

G|----------------------------------------------------------------|.
D|5-----------5---------------5---5-----------5---------------5---|.
A|----5---7-----------5---7-----------5---7-----------5---7-------|.
E|----------------------------------------------------------------|.
                                                                   . x2
G|----------------------------------------------------------------|.
D|7-------5---7-----------5---7---7-------5---7-----------5---7---|.
A|----7---------------7---------------7---------------7-----------|.
E|----------------------------------------------------------------|.

1:37

G|----------------------------------------------------------------|
D|9---7-------9-------7-------7---9---7-------9-------7---4---5---|
A|--------9---------------9---------------9-----------------------|
E|----------------------------------------------------------------|

G|----------------------------------------------------------------|
D|7---5-------7-------5-------5---7---5-------7-------5-----------|
A|--------7---------------7---------------7---------------7-------|
E|----------------------------------------------------------------|

G|------------------------------/-7-----/-7-----/-7-----/-7-------|
D|----------------------------------------------------------------|
A|5---------------------------------------------------------------|
E|----------------------------------------------------------------|

G|----------------------------------------------------------------|
D|5-----------5---------------5---7-------5---7-----------5---7---| x3
A|----5---7-----------5---7-----------7---------------7-----------|
E|----------------------------------------------------------------|

G|7-------------------------------|
D|--------------------------------|
A|--------------------------------|
E|--------------------------------|
Добавлено: 14.05.2016
Вам также может быть интересно:
Другие материалы по этой песне:
  • Аккорды и текст

Страница создана 14.05.2016
http://primanota.ru/shades/when-you-said-goodbye-chords.htm
Привет, Гость.
Предлагаем пройти революционный курс по гитаре.
Подарок от PrimaNota.Ru, забирай!