PrimaNota.ru - самый крупный в мире бесплатный архив песенных текстов, аккордов, табулатур и нот


Shades Apart - Valentine - аккорды и текст, таба, видео

Регистрация Запомнить меня
Войти через:  Facebook Google Twitter Vk Yandex Mail.ru

Shades Apart - Valentine - аккорды и текст, таба, видео

Печатать
Просмотров: 145
Valentine
Shades Apart
Band: Shades Apart
Song: Valentine
Album: Eyewitness

Normal Tuning (E A D G B E)

Note this ||: :||  means repeat

Intro/Verses/Bridge (Intro and bridge is clean and
verses are distorted.)

There could be two guitars here but you can do it with
just one.

E-------8-----------------8---------
A-----------9-----------------9----
D-----------------------------------
G--6------------------8-------------
B------------------------------------
E------------------------------------

Verses (Four measures on each.)

|| : F5 E5 B5 B5 :||

Chorus (All power chords.)

  Ab	 F	 E 	E
||: | |	| |	| | | |	| | | | :||
Solo (Sorry I only have part of it tabbed if you know
the rest feel free to post it.)

E-------------------------
A-------------------------
D------5-------8--5------
G--6-------6----------6--
B-------------------------
E--------------------------

Repeat this next section of the solo.

E------------------------------------
A-------13--13--14--16--13-------
D--13--------------------------13--
G-----------------------------------
B------------------------------------
E------------------------------------

Play this part after the part above.

E--------16-------15--------13------------------
A----------------------------------------16-------
D--13--------13--------13--------13--------13--
G-------------------------------------------------
B--------------------------------------------------
E--------------------------------------------------

This was tabbed by Josh Rubin and was typed and
submitted to  by Daniel Calandro. This tab is the
work of the aforementioned.

If you would like more Shades Apart tabs, my AIM is
The Hoh and my e-mail is lonezzz@yahoo.com
     
Добавлено: 01.11.2013
Другие материалы по этой песне:
  • Аккорды и текст

Страница создана 27.07.2012
http://primanota.ru/shades-apart/valentine-chords.htm
Привет, Гость.
Предлагаем пройти революционный курс по гитаре.
Подарок от PrimaNota.Ru, забирай!