PrimaNota.ru - самый крупный в мире бесплатный архив песенных текстов, аккордов, табулатур и нот


Shade Seven - Forget July - аккорды и текст, видео

Регистрация Запомнить меня
Войти через:  Facebook Google Twitter Vk Yandex Mail.ru

Shade Seven - Forget July - аккорды и текст, видео

Печатать
Просмотров: 61
Уроки эстрадного вокала в Санкт-Петербурге
Forget July
Shade Seven
Shade Seven's "Forget July" on the album ANTENNA SKYLINE  (Tab by R.
Eugene)

Main Riff (Intro/Chrous):
E|---------------5-----
B|-5-5-5-5-5-5-5-5-----
G|-7-6-7-7-6-7-6-------
D|-7-7-7-7-7-7-7-------
A|---------------------
E|---------------------

Riff Outro:
E|-5-7-/12-10----------
B|-5-7-/12-10----------
G|---7-----------------
D|---------------------
A|---------------------
E|---------------------

Bridge:
E|-8-------8-----------
B|---11--------11------
G|------10-------------
D|-----------8---------
A|---------------------
E|---------------------

Main Riff
Outro Main Riff

Bridge
It's the fresh cut grass...

Main Riff
Outro Main Riff
you wonder why ...
it is possible...
...

Bridge

it was that night...

Main Riff
Outro Main Riff

you wonder why...
it is possible...
...

Solo
Other Bridge

I was the one who...
...

Main Riff
     
Добавлено: 23.11.2013
Другие материалы по этой песне:
  • Аккорды и текст

Страница создана 23.11.2013
http://primanota.ru/shade-seven/forget-july-chords.htm
Привет, Гость.
Предлагаем пройти революционный курс по гитаре.
Подарок от PrimaNota.Ru, забирай!