PrimaNota.ru - самый крупный в мире бесплатный архив песенных текстов, аккордов, табулатур и нот


Shad - Out Of Love - таба, видео

Регистрация Запомнить меня
Войти через:  Facebook Google Twitter Vk Yandex Mail.ru

Shad - Out Of Love - таба, видео

Печатать
Просмотров: 51
Уроки эстрадного вокала в Санкт-Петербурге
-------------------------------------------------------------------------------
                             OUT OF LOVE - Shad
-------------------------------------------------------------------------------
Tabbed by: James G
E-mail: james.8932@hotmail.com

Tuning: Standard



Intro: e|-------------------------------------------------------------------|
       B|-------5---7---5--------5---7---5----------------------------------|
       G|---------6---6---6--------6---6---6--------------------------------|
       D|----7--------------------------------------------------------------|
       A|-------------------------------------------------------------------|
       E|--5-----------------5-5--------------------------------------------|



Verse: e|-------------------------------------------------------------------|
       B|-------5---7---5----------3---5---3--------------------------------|
       G|---------6---6---6----------4---4---4------------------------------|
       D|----7-------------------5------------------------------------------|
       A|-------------------------------------------------------------------|
       E|--5------------------3---------------------------------------------|


Добавлено: 21.12.2015
Другие материалы по этой песне:
  • Аккорды и текст

Страница создана 21.12.2015
http://primanota.ru/shad/out-of-love-chords.htm
Привет, Гость.
Предлагаем пройти революционный курс по гитаре.
Подарок от PrimaNota.Ru, забирай!