PrimaNota.ru - самый крупный в мире бесплатный архив песенных текстов, аккордов, табулатур и нот


Shabutie - Wake Up - бас-таба, видео

Регистрация Запомнить меня
Войти через:  Facebook Google Twitter Vk Yandex Mail.ru

Shabutie - Wake Up - бас-таба, видео

Печатать
Просмотров: 111
Уроки эстрадного вокала в Санкт-Петербурге
Wake Up- Shabutie

Not sure if this is 100%, but there aren't any others online so...

Tabbed by: BigMacca- Tom
E-mail: qwerty2113@hotmail.co.uk

Tuning: Dropped D

G|--------------------------------------------------------------------------|
D|--------------------------------------------------------------------------|
A|--------------------------------------------------------------------------|
D|-----0--------------------------------------------------------------------|

G|-------------------------------------------------------------------------------|
D|------0-------------------0------------------0-----------------0---------------|
A|--------------0------------------0------------------0-----------------0--------|
D|---------------------0-----------------0------------------0-----------------0--| x2

"Eeeeeieeee oh! Now!"
G|-------------------------|
D|------2p0-----0-0--------|
A|-----------0-------------|
D|---------------------0---| x12

Give it a second, then go into...

G|-------------------|
D|-------------------|
A|-------------------|
D|-----0h2p0h2-------|

G|---------------------------------------------------------------------------|
D|---------------------------------------------------------------------------|
A|---------------------------------------------------------------------------|
D|-----0-3-5--0-3-5--0-3-5--0-2-2-2------------------------------------------| x16

Awesome slapping bit-"I'm on the inside"
G|-------------------2---------------------------2--------------------------2-----|
D|------0h2-----0h2------0h2------0h2------0h2-------0h2------0h2------0h2--------|
A|--------------------------------------------------------------------------------|
D|-----------0----------------0--------0------------------0--------0--------------|

G|------------------------------2---------|
D|------0h2-----0h2------0h2-------0h2----|
A|----------------------------------------|
D|-----------0-------0--------------------| x3

G|----------------------------------------|
D|----------------------------------------|
A|----------------------------------------|
D|------0-3-5--0-3-5--0-3-5--0-2-2-2------| x4

G|-------------------2---------------------------2--------------------------2-----|
D|------0h2-----0h2------0h2------0h2------0h2-------0h2------0h2------0h2--------|
A|--------------------------------------------------------------------------------|
D|-----------0----------------0--------0------------------0--------0--------------|

G|------------------------------2---------|
D|------0h2-----0h2------0h2-------0h2----|
A|----------------------------------------|
D|-----------0-------0--------------------| x2

G|----------------------------------------|
D|----------------------------------------|
A|----------------------------------------|
D|------0-3-5--0-3-5--0-3-5--0-2-2-2------| x8

G|-----------------------------------------------------|
D|-------3-3-------3-----3--------2--2-------5------5--|
A|---1----------1-----1--------0---------3------3------|
D|-----------------------------------------------------| x4

G|----------------------------------------|
D|----------------------------------------|
A|----------------------------------------|
D|------0-3-5--0-3-5--0-3-5--0-2-2-2------| x4

G|-------------------2---------------------------2--------------------------2-----|
D|------0h2-----0h2------0h2------0h2------0h2-------0h2------0h2------0h2--------|
A|--------------------------------------------------------------------------------|
D|-----------0----------------0--------0------------------0--------0--------------|

G|------------------------------2---------|
D|------0h2-----0h2------0h2-------0h2----|
A|----------------------------------------|
D|-----------0-------0--------------------| x2

G|----------------------------------------|
D|----------------------------------------|
A|----------------------------------------|
D|------0-3-5--0-3-5--0-3-5--0-2-2-2------| x8

G|---------------------------------------------------------------------------|
D|---------------------------------------------------------------------------|
A|---------------------------------------------------------------------------|
D|---0-0--0-0--0--0-0--0-0--0-0--2-2-2-2-2-2---------------------------------| x4

G|-------------------------------|
D|-------------------------------|
A|-------------1-----------------|
D|---0-3-2-1-0----0-0-0-0-0-0-0--| x8 (Last time end on A# miss out the open D's)

Give it a second, then go into this...
G|-----------------------------------------------------|
D|-------3-3-------3-----3--------2--2-------5------5--|
A|---1----------1-----1--------0---------3------3------|
D|-----------------------------------------------------| x8

Last time end like this...
G|-----------------------------------------------------|
D|-------3-3-------3-----3--------2--2-----------------|
A|---1----------1-----1--------0---------3-------------|
D|-----------------------------------------------------|

That's it! It's actually quite easy, but a hell of a lot of fun.

I left out the muted notes in the slapping part due to the fact that I'm quite tired and hungry.

Comments and constructive criticism welcomed! 
(note the word constructive, don't be a douche.)
Добавлено: 24.10.2013
Вам также может быть интересно:
Другие материалы по этой песне:
  • Аккорды и текст

Страница создана 24.10.2013
http://primanota.ru/shabutie/wake-up-chords.htm
Привет, Гость.
Предлагаем пройти революционный курс по гитаре.
Подарок от PrimaNota.Ru, забирай!