PrimaNota.ru - самый крупный в мире бесплатный архив песенных текстов, аккордов, табулатур и нот


Sfakianakis Notis - Soma Mou - таба, видео

Регистрация Запомнить меня
Войти через:  Facebook Google Twitter Vk Yandex Mail.ru

Sfakianakis Notis - Soma Mou - таба, видео

Печатать
Просмотров: 185
Songtitle: Soma mou
Artist: Notis Sfakianakis
Album:5o Bima
Transcibed by: Pepi R. juizad@hotmail.com



Intro:

e-------12---12---10-8-7--------10---10----------------------------------|
b--10--------------------10-8-------------8-10-12-13-10~--8-10-12-13-10--|
G------------------------------------------------------------------------|
D------------------------------------------------------------------------|
A------------------------------------------------------------------------|
E------------------------------------------------------------------------|


Vers:

e-------0-------0---------1-------3-------0----|
b------1-1-----1-1-------1-1-----0-0-----1-1---|
G-----2---2---2---2-----2---2---0---0---2---2--|
D----------------------------------------------|
A----0-------0-------------------------0-------|
E----------------------1-------3---------------|

  Soma mou   apopse       pali...

e-------1--------3--------0--------------|
b------1-1------0-0------1-1-------------|
G-----2---2----0---0----0---0------------|
D----------------------------------------|
A----------------------3-----------------|
E----1--------3--------------------------|
   
    Kai   tin  karthia.....

e-------0-------0-------0-------0--------|
b------0-0-----0-0-----1-1-----1-1-------|
G-----0---0---0---0---2---2---2---2------|
D----------------------------------------|
A--------------------0-------0-----------|
E----0-------0---------------------------| 

  Kafto skotathi mesa mou ...

e-------1-------1--------3-------0-------|
b------3-3-----3-3------0-0-----1-1------|
G-----2---2---2---2----0---0---2---2-----|
D----0-------0---------------------------|
A-----------------------------0----------|
E---------------------3------------------|

   Soma mou kaimeno...

Chorus (strummed):

e----0------|---3-----------3------------|
b----1------|---0-----------3------------|
G----2------|---0-----or----4------------|  Strum a few times and repeat 
D----2------|---0----play---5------------|  repeat the chord. Listen to 
A----0------|---2-----------5------------|  the Cd for the rhytm.
E-----------|---3-----------3------------|

  Soma mou ftiagmeno...


-Mandolin solo
-Vers 2
-Chorus
-Outro=Intro



     
Добавлено: 13.09.2013
Вам также может быть интересно:
Другие материалы по этой песне:
  • Аккорды и текст

Страница создана 13.09.2013
http://primanota.ru/sfakianakis-notis/soma-mou-chords.htm
Привет, Гость.
Предлагаем пройти революционный курс по гитаре.
Подарок от PrimaNota.Ru, забирай!