PrimaNota.ru - самый крупный в мире бесплатный архив песенных текстов, аккордов, табулатур и нот


Sex Slaves - Get In Line - таба, бас-таба, видео

Регистрация Запомнить меня
Войти через:  Facebook Google Twitter Vk Yandex Mail.ru

Sex Slaves - Get In Line - таба, бас-таба, видео

Печатать
Просмотров: 87
-----------------------------------------------------------------------------
                                  
                     Get In Line - Sex Slaves (GUITAR)
            
-----------------------------------------------------------------------------
Tabbed by: Scotto10

Tuning: standard tuning

=============================================================================

Guitar - acoustic



E||-------|-------|-------|-------|-------|-------|-------|-------|-------|
B||-------|-------|-------|-------|-------|-------|-------|-------|-------|
G||-------|-------|-------|-------|-------|-------|-------|-------|-------|
D||-------|-------|-------|-------|-------|-------|-------|-------|-------|
A||-------|-------|-------|-------|-------|-------|-------|-------|-------|
E||-------|-------|-------|-------|-------|-------|-------|-------|-------|


                          F                                               
                          E  E  H        E  E     Q    E  E  E  E  E  E   
-------|-------|-------|--1-----1--------1--1--|--1----1--1-----1--1-----|
-------|-------|-------|--1-----1--------1--1--|--1----1--1--1--1--1--0--|
-------|-------|-------|--2-----2--------2--2--|--2----2--2--2--2--2--0--|
-------|-------|-------|--3-----3--------3--3--|--3----3--3-----3--3--0--|
-------|-------|-------|-----------------------|-------------------------|
-------|-------|-------|-----------------------|-------------------------|


  E                                                Dm                    
  Q    E  Q    E  Q       Q    E  Q    E  E  E     Q    E  Q    E  Q     
--0----0--0----0--0----|--0----0--0----0--0--0--|--1-------1----1--1----|
--0----0--0----0--0----|--0----0--0----0--0--0--|--3-------3----3--3----|
--1----1--1----1--1----|--1----1--1----1--1--1--|--2-------2----2--2----|
--2----2--2----2--2----|--2----2--2----2--2--2--|--0-------0----0--0----|
-----------------------|------------------------|-----------------------|
-----------------------|------------------------|-----------------------|


  G5                         E                        
  E  E  E  E  E  E  E  E     E  E  E  E  E  E  E  E   
--3--3--3--3-----3--3--3--|--0--0--0--0--0--0--0--0--|
--3--3--3--3-----3--3--3--|--0--0--0--0--0--0--0--0--|
--0--0--0--0-----0--0--0--|--1--1--1--1--1--1--1--1--|
--0--0--0--0-----0--0--0--|--2--2--2--2--2--2--2--2--|
--------------------------|--2--2--2--2--2--2--2--2--|
--3--3--3--3-----3--3--3--|--0--0--0--0--0--0--0--0--|


  Am                         Dm                         Am                      
  E  E  E  E  E  E  E  E     E  E  E  E  E  E  E  E     E  E  E  E  Q    E  E   
--0--0--0--0--0--0--0--0--|--1--1--1--1--1--1--1--1--|--0-----0--0--0----0--0--|
--1--1--1--1--1--1--1--1--|--3--3--3--3--3--3--3--3--|--1-----1--1--1----1--1--|
--2--2--2--2--2--2--2--2--|--2--2--2--2--2--2--2--2--|--2-----2--2--2----2--2--|
--2--2--2--2--2--2--2--2--|--0--0--0--0--0--0--0--0--|--2-----2--2--2----2--2--|
--0--0--0--0--0--0--0--0--|--------------------------|--0-----0--0--0----0--0--|
--------------------------|--------------------------|-------------------------|


  E                                      Am          Dm                       
  E  E  E  E  E  E  E  E     E  E  E  E  H           E  E  E  E  E  E  E  E   
--0--0--0--0--0--0--0--0--|--0--0--0--0--0--------|--1--1-----1--1--1--1--1--|
--0--0--0--0--0--0--0--0--|--0--0--0--0--1--------|--3--3-----3--3--3--3--3--|
--1--1--1--1--1--1--1--1--|--1--1--1--1--2--------|--2--2-----2--2--2--2--2--|
--2--2--2--2--2--2--2--2--|--2--2--2--2--2--------|--0--0-----0--0--0--0--0--|
--2--2--2--2--2--2--2--2--|--2--2--2--2--0--------|--------------------------|
--0--0--0--0--0--0--0--0--|--0--0--0--0-----------|--------------------------|


  Am                         E                         Am                       
  E  E  E  E  E  E  E  E     E  Q    E  E  E  E  E     E  E  E  E  E  E  E  E   
--0--0-----0--0--0--0--0--|--0--0----0--0--0--0--0--|--0--0-----0--0--0--0--0--|
--1--1-----1--1--1--1--1--|--0--0----0--0--0--0--0--|--1--1-----1--1--1--1--1--|
--2--2-----2--2--2--2--2--|--1--1----1--1--1--1--1--|--2--2-----2--2--2--2--2--|
--2--2-----2--2--2--2--2--|--2--2----2--2--2--2--2--|--2--2-----2--2--2--2--2--|
--0--0-----0--0--0--0--0--|--2--2----2--2--2--2--2--|--0--0-----0--0--0--0--0--|
--------------------------|--0--0----0--0--0--0--0--|--------------------------|


  Dm                         Am                         E                       
  E  E  E  E  E  E  E  E     E  E  E  E  E  E  E  E     E  Q    E  E  E  E  E   
--1--1-----1--1--1--1--1--|--0--0-----0--0--0--0--0--|--0--0----0--0--0--0--0--|
--3--3-----3--3--3--3--3--|--1--1-----1--1--1--1--1--|--0--0----0--0--0--0--0--|
--2--2-----2--2--2--2--2--|--2--2-----2--2--2--2--2--|--1--1----1--1--1--1--1--|
--0--0-----0--0--0--0--0--|--2--2-----2--2--2--2--2--|--2--2----2--2--2--2--2--|
--------------------------|--0--0-----0--0--0--0--0--|--2--2----2--2--2--2--2--|
--------------------------|--------------------------|--0--0----0--0--0--0--0--|


  Am                         Dm                        Am                       
  E  E  E  E  E  E  E  E     E  Q    E  E  E  E  E     E  E  E  E  E  E  E  E   
--0--0-----0--0--0--0--0--|--1--1----1--1--1--1--1--|--0--0-----0--0--0--0--0--|
--1--1-----1--1--1--1--1--|--3--3----3--3--3--3--3--|--1--1-----1--1--1--1--1--|
--2--2-----2--2--2--2--2--|--2--2----2--2--2--2--2--|--2--2-----2--2--2--2--2--|
--2--2-----2--2--2--2--2--|--0--0----0--0--0--0--0--|--2--2-----2--2--2--2--2--|
--0--0-----0--0--0--0--0--|-------------------------|--0--0-----0--0--0--0--0--|
--------------------------|-------------------------|--------------------------|


  E                         Am                        Dm                      
  E  Q    E  E  E  E  E     E  Q    E  E  E  E  E     E  Q    E  E  E  E  E   
--0--0----0--0--0--0--0--|--0--0----0--0--0--0--0--|--1--1----1--1--1--1--1--|
--0--0----0--0--0--0--0--|--1--1----1--1--1--1--1--|--3--3----3--3--3--3--3--|
--1--1----1--1--1--1--1--|--2--2----2--2--2--2--2--|--2--2----2--2--2--2--2--|
--2--2----2--2--2--2--2--|--2--2----2--2--2--2--2--|--0--0----0--0--0--0--0--|
-------------------------|--0--0----0--0--0--0--0--|-------------------------|
-------------------------|-------------------------|-------------------------|


  Am                         E                         Am                      
  E  E  E  E  E  E  E  E     E  Q    E  E  E  E  E     E  Q    E  E  E  E  E   
--0--0-----0--0--0--0--0--|--0--0----0--0--0--0--0--|--0--0----0--0--0--0--0--|
--1--1-----1--1--1--1--1--|--0--0----0--0--0--0--0--|--1--1----1--1--1--1--1--|
--2--2-----2--2--2--2--2--|--1--1----1--1--1--1--1--|--2--2----2--2--2--2--2--|
--2--2-----2--2--2--2--2--|--2--2----2--2--2--2--2--|--2--2----2--2--2--2--2--|
--0--0-----0--0--0--0--0--|-------------------------|--0--0----0--0--0--0--0--|
--------------------------|-------------------------|-------------------------|


  F                                                    E                       
  E  E  E  E  E  E  E  E     Q    E  E  E  E  E  E     Q    E  E  E  E  E  E   
--1-----1--1--1--1--1--1--|--1----1--1--1--1--1--1--|--0----0--0--0--0--0--0--|
--1-----1--1--1--1--1--1--|--1----1--1--1--1--1--1--|--0----0--0--0--0--0--0--|
--2-----2--2--2--2--2--2--|--2----2--2--2--2--2--2--|--1----1--1--1--1--1--1--|
--3-----3--3--3--3--3--3--|--3----3--3--3--3--3--3--|--2----2--2--2--2--2--2--|
--------------------------|-------------------------|--2----2--2--2--2--2--2--|
--------------------------|-------------------------|-------------------------|


                            Dm                         G5                       
  Q    E  E  E  E  E  E     E  E  E  E  E  E  E  E     E  E  E  E  E  E  E  E   
--0----0--0--0--0--0--0--|--1--1--1--1--1--1--1--1--|--3--3--3--3--3--3--3--3--|
--0----0--0--0--0--0--0--|--3--3--3--3--3--3--3--3--|--3--3--3--3--3--3--3--3--|
--1----1--1--1--1--1--1--|--2--2--2--2--2--2--2--2--|--0--0--0--0--0--0--0--0--|
--2----2--2--2--2--2--2--|--0--0--0--0--0--0--0--0--|--0--0--0--0--0--0--0--0--|
--2----2--2--2--2--2--2--|--------------------------|--------------------------|
-------------------------|--------------------------|--3--3--3--3--3--3--3--3--|


  E                          Am                       
  E  E  E  E  E  E  E  E     E  E  E  E  E  E  E  E   
--0--0--0--0--0--0--0--0--|--0--0--0--0--0--0--0--0--|
--0--0--0--0--0--0--0--0--|--1--1--1--1--1--1--1--1--|
--1--1--1--1--1--1--1--1--|--2--2--2--2--2--2--2--2--|
--2--2--2--2--2--2--2--2--|--2--2--2--2--2--2--2--2--|
--2--2--2--2--2--2--2--2--|--0--0--0--0--0--0--0--0--|
--0--0--0--0--0--0--0--0--|--------------------------|


  Dm                         Am                       
  E  E  E  E  E  E  E  E     E  E  E  E  E  E  E  E   
--1--1--1--1--1--1--1--1--|--0-----0--0--0--0--0--0--|
--3--3--3--3--3--3--3--3--|--1-----1--1--1--1--1--1--|
--2--2--2--2--2--2--2--2--|--2-----2--2--2--2--2--2--|
--0--0--0--0--0--0--0--0--|--2-----2--2--2--2--2--2--|
--------------------------|--0-----0--0--0--0--0--0--|
--------------------------|--------------------------|


  E                          E                        
  E  E  E  E  E  E  E  E     E  E  E  E  E  E  E  E   
--0--0--0--0--0--0--0--0--|--0--0--0--0--0--0--0--0--|
--0--0--0--0--0--0--0--0--|--0--0--0--0--1--1--1--1--|
--1--1--1--1--1--1--1--1--|--1--1--1--1--2--2--2--2--|
--2--2--2--2--2--2--2--2--|--2--2--2--2--2--2--2--2--|
--2--2--2--2--2--2--2--2--|--2--2--2--2--0--0--0--0--|
--0--0--0--0--0--0--0--0--|--0--0--0--0--------------|


  Dm                         Am                       
  E  E  E  E  E  E  E  E     E  E  E  E  E  E  E  E   
--1--1--1--1--1--1--1--1--|--0--0--0--0--0--0--0--0--|
--3--3--3--3--3--3--3--3--|--1--1--1--1--1--1--1--1--|
--2--2--2--2--2--2--2--2--|--2--2--2--2--2--2--2--2--|
--0--0--0--0--0--0--0--0--|--2--2--2--2--2--2--2--2--|
--------------------------|--0--0--0--0--0--0--0--0--|
--------------------------|--------------------------|


  E                          Am                                               
  E  E  E  E  E  E  E  E     E  E  E  E  E  E  E  E                           
--0--0--0--0--0--0--0--0--|--0--0--0--0--0--0--0--0--|-------|-------|-------|
--0--0--0--0--0--0--0--0--|--1--1--1--1--1--1--1--1--|-------|-------|-------|
--1--1--1--1--1--1--1--1--|--2--2--2--2--2--2--2--2--|-------|-------|-------|
--2--2--2--2--2--2--2--2--|--2--2--2--2--2--2--2--2--|-------|-------|-------|
--2--2--2--2--2--2--2--2--|--0--0--0--0--0--0--0--0--|-------|-------|-------|
--0--0--0--0--0--0--0--0--|--------------------------|-------|-------|-------|



=============================================================================



Guitar 2 - electric



E||-------|-------|-------|-------|-------|-------|-------|-------|-------|
B||-------|-------|-------|-------|-------|-------|-------|-------|-------|
G||-------|-------|-------|-------|-------|-------|-------|-------|-------|
D||-------|-------|-------|-------|-------|-------|-------|-------|-------|
A||-------|-------|-------|-------|-------|-------|-------|-------|-------|
E||-------|-------|-------|-------|-------|-------|-------|-------|-------|


-------|-------|-------|-------|-------|-------|-------|-------|-------|-------|
-------|-------|-------|-------|-------|-------|-------|-------|-------|-------|
-------|-------|-------|-------|-------|-------|-------|-------|-------|-------|
-------|-------|-------|-------|-------|-------|-------|-------|-------|-------|
-------|-------|-------|-------|-------|-------|-------|-------|-------|-------|
-------|-------|-------|-------|-------|-------|-------|-------|-------|-------|


-------|-------|-------|-------|-------|-------|-------|-------|-------|
-------|-------|-------|-------|-------|-------|-------|-------|-------|
-------|-------|-------|-------|-------|-------|-------|-------|-------|
-------|-------|-------|-------|-------|-------|-------|-------|-------|
-------|-------|-------|-------|-------|-------|-------|-------|-------|
-------|-------|-------|-------|-------|-------|-------|-------|-------|


  H.           E  E     H.           E  E     H.           E  E   
---------------------|--5------------7--5--|--4------------4--7--|
--6------------8--6--|---------------------|---------------------|
---------------------|---------------------|---------------------|
---------------------|---------------------|---------------------|
---------------------|---------------------|---------------------|
---------------------|---------------------|---------------------|


  W                   H        H                                         
--5----------------|--L-----------------|-------|-------|-------|-------|
-------------------|--------------------|-------|-------|-------|-------|
-------------------|--------------------|-------|-------|-------|-------|
-------------------|--------------------|-------|-------|-------|-------|
-------------------|--------------------|-------|-------|-------|-------|
-------------------|--------------------|-------|-------|-------|-------|


                          E  E  H        Q       W                 
-------|-------|-------|----------------------|-------------------|
-------|-------|-------|----------------------|-------------------|
-------|-------|-------|----------------------|-------------------|
-------|-------|-------|----------------------|-------------------|
-------|-------|-------|--3-----3--------L----|--3----------------|
-------|-------|-------|--1-----1--------L----|--1----------------|


  W                   H        E  E  E  E     Q    E  H        E   
-------------------|-----------------------|----------------------|
-------------------|-----------------------|--3-------3--------L--|
-------------------|-----------------------|--2-------2--------L--|
-------------------|-----------------------|--0-------0--------L--|
--2----------------|--2--------2--2--2--2--|----------------------|
--0----------------|--0--------0--0--0--0--|----------------------|


  Q    E  H        E     Q    E  E  E  E  E  E     Q    E  E  E  E  E  E   
----------------------|-------------------------|-------------------------|
----------------------|-------------------------|-------------------------|
----------------------|-------------------------|--2----------------------|
--5-------5--------L--|--2----------------------|--2-------2--------------|
--5-------5--------L--|--2-------2--------------|--0-------0--3-----3--4--|
--3-------3--------L--|--0-------0--3--0--3--4--|----------------0--------|


  Q    E  H        E     E  E  E   E   Q    Q       Q    E  Q    Q.      
----------------------|--------------------------|----------------------|
--3-------3--------L--|--------------------------|----------------------|
--2-------2--------L--|--------------------------|----------------------|
--0-------0--------L--|--------------------------|----------------------|
----------------------|--7-----7s--5s--7----7----|--2----2--2----2------|
----------------------|--5-----5s--3s--5----5----|--0----0--0----0------|


  E  E  Q    H           Q    E  Q.     E  E     Q    E  Q.     E  E   
----------------------|-----------------------|-----------------------|
----------------------|--3-------3------------|-----------------------|
----------------------|--2-------2------------|--2-------2------------|
--2--0----------------|--0-------0------------|--2-------2------------|
--------3----0--------|-----------------3--2--|--0-------0------------|
----------------------|-----------------------|-----------------3--2--|


                                                 F5                    
  Q    E  Q.     E  E     Q    E  H        E     Q    Q.     E  E  E   
-----------------------|----------------------|-----------------------|
-----------------------|----------------------|-----------------------|
-----------------------|--2-------2--------L--|--------------0--0--2--|
--2-------2------------|--2-------2--------L--|--3----3------0--0--2--|
--2-------2------------|--0-------0--------L--|--3----3------------0--|
--0-------0------3--4--|----------------------|--1----1------3--3-----|


  A5                   F5                      A5                 
  Q    H.              Q    Q.     E  E  E     Q    H.            
--------------------|-----------------------|--------------------|
--------------------|-----------------------|--------------------|
--2----2------------|--------------0--0--2--|--2----2------------|
--2----2------------|--3----3------0--0--2--|--2----2------------|
--0----0------------|--3----3------------0--|--0----0------------|
--------------------|--1----1------3--3-----|--------------------|


  D                       A5                   E5                     
  Q    Q.     E  E  E     Q    H.              Q    Q    E  E  E  E   
-----------------------|--------------------|------------------------|
--3----3---------------|--------------------|------------------------|
--2----2------5--5--2--|--2----2------------|------------------------|
--0----0------5--5--2--|--2----2------------|------------------------|
--0----0------3--3--0--|--0----0------------|--2----2----------------|
-----------------------|--------------------|--0----0----3--0--3--4--|


  A5                                                         
  Q    H.              W                   W                 
--------------------|-------------------|-------------------|
--------------------|-------------------|-------------------|
--2----2------------|--L----------------|--L----------------|
--2----2------------|--L----------------|--L----------------|
--0----0------------|--L----------------|--L----------------|
--------------------|-------------------|-------------------|


  D5                         A5                       
  PM PM PM PM PM PM PM PM    PM PM PM PM PM PM PM PM  
  E  E  E  E  E  E  E  E     E  E  E  E  E  E  E  E   
--------------------------|--------------------------|
--------------------------|--------------------------|
--2--2--2--2--2--2--------|--------------------------|
--0--0--0--0--0--0--------|--2--2--2--2--2--2--------|
--------------------3--2--|--0--0--0--0--0--0--------|
--------------------------|--------------------3--1--|


  E5                         A5                       
  PM PM PM PM PM PM PM PM    PM PM PM PM PM PM PM PM  
  E  E  E  E  E  E  E  E     E  E  E  E  E  E  E  E   
--------------------------|--------------------------|
--------------------------|--------------------------|
--------------------------|--------------------------|
--------------------------|--2--2--2--2--2--2--------|
--2--2--2--2--2--2--------|--0--0--0--0--0--0--3--4--|
--0--0--0--0--0--0--3--4--|--------------------------|


  D5                         A5                       
  PM PM PM PM PM PM PM PM    PM PM PM PM PM PM PM PM  
  E  E  E  E  E  E  E  E     E  E  E  E  E  E  E  E   
--------------------------|--------------------------|
--------------------------|--------------------------|
--2--2--2--2--2--2--------|--------------------------|
--0--0--0--0--0--0--------|--2--2--2--2--2--2--------|
--------------------3--2--|--0--0--0--0--0--0--------|
--------------------------|--------------------3--1--|


  E5                         A5                          F5                   
  PM PM PM PM PM PM PM PM                                                     
  E  E  E  E  E  E  E  E     E  E  E  E  E  E   Q        E  E  H        Q     
--------------------------|---------------------------|----------------------|
--------------------------|---------------------------|----------------------|
--------------------------|---------------------------|----------------------|
--------------------------|--2--2-----2--2------------|----------------------|
--2--2--2--2--2--2--------|--0--0-----0--0------------|--3-----3--------L----|
--0--0--0--0--0--0--3--4--|--------------------12\----|--1-----1--------L----|


                      E5                                        
  W                   W                   H        E  E  E  E   
-------------------|-------------------|-----------------------|
-------------------|-------------------|-----------------------|
-------------------|-------------------|-----------------------|
-------------------|-------------------|-----------------------|
--3----------------|--2----------------|--2--------2--2--2--2--|
--1----------------|--0----------------|--0--------0--0--0--0--|


  D5                     G5                     E5                      
  Q    E  H        E     Q    E  H        E     Q    E  E  E  E  E  E   
----------------------|----------------------|-------------------------|
--3-------3--------L--|----------------------|-------------------------|
--2-------2--------L--|----------------------|-------------------------|
--0-------0--------L--|--5-------5--------L--|--2----------------------|
----------------------|--5-------5--------L--|--2-------2--------------|
----------------------|--3-------3--------L--|--0-------0--3--0--3--4--|


  A5                        D5                     A5                       
  Q    E  E  E  E  E  E     Q    E  H        E     E  E  E   E   Q    Q     
-------------------------|----------------------|--------------------------|
-------------------------|--3-------3--------L--|--------------------------|
--2----------------------|--2-------2--------L--|--------------------------|
--2-------2--------------|--0-------0--------L--|--------------------------|
--0-------0--3-----3--4--|----------------------|--7-----7s--5s--7----7----|
----------------0--------|----------------------|--5-----5s--3s--5----5----|


  E5                                Am          D5                    
  Q    E  Q    Q.        E  E  Q    H           Q    E  Q.     E  E   
----------------------|----------------------|-----------------------|
----------------------|----------------------|--3-------3------------|
----------------------|----------------------|--2-------2------------|
----------------------|--2--0----------------|--0-------0------------|
--2----2--2----2------|--------3----0--------|-----------------3--2--|
--0----0--0----0------|----------------------|-----------------------|


  A5                      E5                      A5                   
  Q    E  Q.     E  E     Q    E  Q.     E  E     Q    E  H        E   
-----------------------|-----------------------|----------------------|
-----------------------|-----------------------|----------------------|
--2-------2------------|-----------------------|--2-------2--------L--|
--2-------2------------|--2-------2------------|--2-------2--------L--|
--0-------0------------|--2-------2------------|--0-------0--------L--|
-----------------3--2--|--0-------0------3--4--|----------------------|


  D5                      A5                      E5                    
  Q    E  Q.     E  E     Q    E  Q.     E  E     Q    E  Q.     E  E   
-----------------------|-----------------------|-----------------------|
--3-------3------------|-----------------------|-----------------------|
--2-------2------------|--2-------2------------|-----------------------|
--0-------0------------|--2-------2------------|--2-------2------------|
-----------------3--2--|--0-------0------------|--2-------2------------|
-----------------------|-----------------3--2--|--0-------0------3--4--|


  A5                                     
  W                   W                  
-------------------|-------------------||
-------------------|-------------------||
--2----------------|--L----------------||
--2----------------|--L----------------||
--0----------------|--L----------------||
-------------------|-------------------||




Duration Legend
---------------
W - whole
H - half
Q - quarter
E - 8th
S - 16th
T - 32nd
X - 64th
. - note dotted
|-n-|  - n-tuplets


Tablature Legend
----------------
L - tied note
x - dead note
g - grace note
(n) - ghost note
> - accentuded note
NH - natural harmonic
AH - artificial harmonic
TH - tapped harmonic
SH - semi harmonic
PH - pitch harmonic
h - hammer on
p - pull off
b - bend
br - bendRelease
pb - preBend
pbr - preBendRelease
brb - bendReleaseBend
\n/ - tremolo bar dip
\n - tremolo bar dive
-/n - tremolo bar Release up
/n\ - tremolo bar inverted dip
/n - tremolo bar return
-\n - tremolo bar Release down
S - shift slide
s - legato slide
/ -  slide into from below or out of upwards
\ -  slide into from above or out of downwards
~ - vibrato
W - wide vibrato
tr - trill
TP - tremolo picking
T - tapping
S - slap
P - pop
< - fade in
^ - brush up
v - brush down
Добавлено: 08.08.2013
Другие материалы по этой песне:

Страница создана 08.08.2013
http://primanota.ru/sex-slaves/get-in-line-chords.htm
Привет, Гость.
Предлагаем пройти революционный курс по гитаре.
Подарок от PrimaNota.Ru, забирай!