PrimaNota.ru - самый крупный в мире бесплатный архив песенных текстов, аккордов, табулатур и нот


Sex Pistols - Liar - текст песни, таба, бас-таба, видео

Регистрация Запомнить меня
Войти через:  Facebook Google Twitter Vk Yandex Mail.ru

Sex Pistols - Liar - текст песни, таба, бас-таба, видео

Печатать
Просмотров: 154
Artist: Sex Pistols
Song: Liar
Album: Never Mind the Bollocks

 This is a cool song all about Malcolm McLaren, their deranged
'manager'! This tab even has the solo, which took me ages
to learn and tab. Good luck!


Intro
e|---------------------------------|
B|---------------------------------|
G|-7-7-7-7-7-7-7-7-7-7-7-7-7-7-7-7-|
D|-x-x-x-x-x-x-x-x-x-x-x-x-x-x-x-x-|
A|-5-5-5-5-5-5-5-5-5-5-5-5-5-5-5-5-|
E|---------------------------------|  x3
P.M

e|------------------|
B|------------------|
G|-7-7-7-7-7-7-7-7~-|
D|-x-x-x-x-x-x-x-x~-|
A|-5-5-5-5-5-5-5-5~-|
E|------------------|
P.M


Verse
e|-------------------------------------|
B|-------------------------------------|
G|-------------------------------------|
D|-7-7-7-7-7-7-7-7-7-7-7-7-5/7-5/7-5/7-|
A|-5-5-5-5-5-5-5-5-5-5-5-5-3/5-3/5-3/5-|
E|-------------------------------------|

Chorus
e|-------------------------------------------------------------------|
B|-------------------------------------------------------------------|
G|-------------------------------------------------------------------|
D|-2-2-2-2-2-2-2-2-2-2-2-2-2-2-2-2-4-4-4-4-4-4-4-4-------------------|
A|-0-0-0-0-0-0-0-0-0-0-0-0-0-0-0-0-2-2-2-2-2-2-2-2-5-5-5-5-5-5-5-5-5-|
E|-------------------------------------------------3-3-3-3-3-3-3-3-3-|

Post chorus
e|-------------------------------------------------|
B|-------------------------------------------------|
G|-------------------------------------------------|
D|-7-7-7-7-7-7-7-7-7-7-7-7-7-7-7-7-7-7-7-7-7-7--7~-|
A|-5-5-5-5-5-5-5-5-5-5-5-5-5-5-5-5-5-5-5-5-5-5--5~-|
E|-------------------------------------------------|
P.M


Bridge
e|---------------------------|
B|---------------------------|
G|---------------------------|
D|-2-2-2-2-2-2-2-2-2-2-2-2-2-|
A|-0-0-0-0-0-0-0-0-0-0-0-0-0-|
E|---------------------------| x3

e|---------------------------|
B|---------------------------|
G|---------------------------|
D|-7-7-7-7-7-7-7-7-7-7-7-7-7-|
A|-5-5-5-5-5-5-5-5-5-5-5-5-5-|
E|---------------------------| x3

e|---------------------------|
B|---------------------------|
G|---------------------------|
D|-2-2-2-2-2-2-2-2-2-2-2-2-2-|
A|-0-0-0-0-0-0-0-0-0-0-0-0-0-|
E|---------------------------| x3


Solo
e|-----------------------------------------------------------------|
B|-12b-12b-12b-12b-12b-12b-12b-12b-12b-12b-12b-12b-12b-12b-12b-12b-|
G|-12b-12b-12b-12b-12b-12b-12b-12b-12b-12b-12b-12b-12b-12b-12b-12b-|
D|-----------------------------------------------------------------|
A|-----------------------------------------------------------------|
E|-----------------------------------------------------------------|

e|--------------------------------------------------------------|
B|-12b-12b-12b-12b-12b-12---12-10-10b-10--10-----------------12-|
G|-12b-12b-12b-12b-12b-12b--12-10-12b--------12---12b12-10~-----|
D|--------------------------------------------------------------|
A|--------------------------------------------------------------|
E|--------------------------------------------------------------|

e|-----------------------------------------------------------------|
B|-12b-12b-12b-12b-12b-12b-12b-12b-12b-12b-12b-12b-12b-12b-12b-----|
G|-12b-12b-12b-12b-12b-12b-12b-12b-12b-12b-12b-12b-12b-12b-12b-12b-|
D|-----------------------------------------------------------------|
A|-----------------------------------------------------------------|
E|-----------------------------------------------------------------|

e|-----------------------------------------------------------------|
B|-13-----13------13-----13-----13------15-------15-------15-------|
G|----12b----12b----12b----12b-----14b------14b------14b-----14b---|
D|-----------------------------------------------------------------|
A|-----------------------------------------------------------------|
E|-----------------------------------------------------------------|

e|---------------------|
B|-15-------15---15----|
G|----14b--------------|
D|------------------7/-|
A|------------------5/-|
E|---------------------|


Those are the riffs etc needed to play liar!

e-mail: iamtheowl133@aol.com
Добавлено: 12.08.2013
Другие материалы по этой песне:

Страница создана 28.02.2012
http://primanota.ru/sex-pistols/liar-chords.htm
Привет, Гость.
Предлагаем пройти революционный курс по гитаре.
Подарок от PrimaNota.Ru, забирай!