PrimaNota.ru - самый крупный в мире бесплатный архив песенных текстов, аккордов, табулатур и нот


Sex Pistols - Jingle Bells - таба, видео

Регистрация Запомнить меня
Войти через:  Facebook Google Twitter Vk Yandex Mail.ru

Sex Pistols - Jingle Bells - таба, видео

Печатать
Просмотров: 889
Well guys I was watching for Jingle Bells tab by Sex Pistols and didn't find anything so 
I thought like "why not" and decided to write it for people who need it. So here we go...

Tuning: standard (E,A,D,G,B,e)
Author: Sex Pistols
*-Mute
Verse (all verses are same)
e|-------------------------------------------|
B|-------------------------------------------|
G|-------------------------------------------|
D|-----------------------5-5-5-5-----7-7-7-7-|
A|---------------5-5-5-5-3-3-3-3-5-5-5-5-5-5-|
E|---------------3-3-3-3---------3-3---------|
                 ****************************                                         
(If you don't wanna mute it you're welcome)
Chorus
e|-------------------------------------------------|
B|-------------------------------------------------|
G|---------5-5---------7-7---------5-5-----7-7-----|
D|-5-5-5-5-5-5-5-5-7-7-7-7-5-5-5-5-5-5-5-5-7-7-5-5-|
A|-5-5-5-5-3-3-5-5-7-7-5-5-5-5-5-5-3-3-5-5-5-5-5-5-|
E|-3-3-3-3-----3-3-5-5-----3-3-3-3-----3-3-----3-3-|

Little break.

e|---------------------------------------|
B|---------------------------------------|
G|-----------------------5-5-----7-7-----|
D|-5-5-5-3-5--5-5-5-3-5--5-5-5-5-7-7-5-5-|
A|-5-5-5-3-5--5-5-5-3-5--3-3-5-5-5-5-5-5-|
E|-3-3-3-1-3--3-3-3-1-3------3-3-----3-3-|

Verse
Chorus

Solo(yea this is SOLO)
(Part 1)
e|---------------------------------------------------------------|
B|---12-12-12-------12-12-12-------13-13-13----15--15-15-13-10---|
G|------------12-------------12-------------12-----------------12|
D|---------------12-------------14-------------------------------|
A|---------------------------------------------------------------|
E|---------------------------------------------------------------|

(Part 2)
e|--------------------------------------------------------------------------|
B|---12-12-12----------------12-12-12----------------13-13-13----15-15-15-15|
G|------------12----------------------12----------------------12------------|
D|---------------12-12-12-12-------------14-14-14-14------------------------|
A|--------------------------------------------------------------------------|
E|--------------------------------------------------------------------------|
     ***********************************************************************
e|----------------|
B|-15-15-13-10----|
G|-------------12-|
D|----------------|
A|----------------|
E|----------------|
  ************

That's it. Enjoy. (Vocal is little bit suck but this is punk rock \m/)
Добавлено: 21.09.2013
Другие материалы по этой песне:
  • Аккорды и текст

Страница создана 21.09.2013
http://primanota.ru/sex-pistols/jingle-bells-chords.htm
Привет, Гость.
Предлагаем пройти революционный курс по гитаре.
Подарок от PrimaNota.Ru, забирай!