PrimaNota.ru - самый крупный в мире бесплатный архив песенных текстов, аккордов, табулатур и нот


Sex Pistols - Great Rock Roll Swindle - бас-таба, видео

Регистрация Запомнить меня
Войти через:  Facebook Google Twitter Vk Yandex Mail.ru

Sex Pistols - Great Rock Roll Swindle - бас-таба, видео

Печатать
Просмотров: 115
SSSSSSSSSSSSSSSSSSSSSSSSSSSSSSSSSSSSSSSSSSSSSSSSSSSSSSSSSSSSSSSSSSSSSSSSSSSSSSS
The Great Rock & Roll Swindle - Sex Pistols
SSSSSSSSSSSSSSSSSSSSSSSSSSSSSSSSSSSSSSSSSSSSSSSSSSSSSSSSSSSSSSSSSSSSSSSSSSSSSSS

Origionally Tabbed by : Tamara

Intro/chorus/outro
G|------------------------------------------------------------------------|
D|--8-8~--5-5-3-3~--5-5-3-3-----8-8~-5-5-3-3~-5-5-8-8~-8-8--8-------------|
A|--------------------------6-6~------------------------------8-8-8-8-8-8-|
E|------------------------------------------------------------------------|


Verse
G|------------------------------------------------------------------|
D|------------------------------------------------------------------|
A|-6-6-6-6-6-6-6-6-5-6-6-6-5-6-6-6--6-6-6-6-6-6-6-6-5-6-6-6-5-6-6-6-|
E|------------------------------------------------------------------|

G|------------------------------------------------------------------|
D|------------------------------------------------------------------|
A|-8-8-8-8-8-8-8-8-7-8-8-8-7-8-8-8
Добавлено: 30.01.2014
Другие материалы по этой песне:
  • Аккорды и текст

Страница создана 30.01.2014
http://primanota.ru/sex-pistols/great-rock-roll-swindle-chords.htm
Привет, Гость.
Предлагаем пройти революционный курс по гитаре.
Подарок от PrimaNota.Ru, забирай!