PrimaNota.ru - самый крупный в мире бесплатный архив песенных текстов, аккордов, табулатур и нот


Sex Pistols - Flowers Of Romance - таба, видео

Регистрация Запомнить меня
Войти через:  Facebook Google Twitter Vk Yandex Mail.ru

Sex Pistols - Flowers Of Romance - таба, видео

Печатать
Просмотров: 115
Sex Pistols
Flowers Of Romance


This song was only recorded live at the 100 Club punk festival. I attempted to get the 
down, but the recording was so bad that it was hard to hear the guitar.

BEGINNING

E------------------------------------|
B------------------------------------|
G------------------------------------|
D----3--3--3--3--3--3--3--3--3--3--3-|
A----3--3--3--3--3--3--3--3--3--3--3-|
E----1--1--1--1--1--1--1--1--1--1--1-|

INTRO
E-------------------------|
B-------------------------|
G-------------------------|
D--6---6---6---6-6-6-6-6--|
A--6---6---6---6-6-6-6-6--|
E--4---4---4---4-4-4-4-4--|

VERSE
E------------------------------|
B------------------------------|
G--6-6-6-6-6-6-6-11-11-11-11---|
D--6-6-6-6-6-6-6-11-11-11-11---|
A--4-4-4-4-4-4-4-9--9--9--9----|
E------------------------------|

CHORUS
E------------------------------------------------------|
B------------------------------------------------------|
G------------------------------------------------------|
D--11-11-10-10-8-8-6-6-4-4-3-3-6-6-6-6-6-6-6-6-6-6-6-6-|
A--11-11-10-10-8-8-6-6-4-4-3-3-6-6-6-6-6-6-6-6-6-6-6-6-|
E---9--9--8--8-6-6-4-4-2-2-1-1-4-4-4-4-4-4-4-4-4-4-4-4-|

BRIDGE
E------------------------------------------------------------------|
B------------------------------------------------------------------|
G--8-8-8-8-8-8-8-8---------------6-6-6-6-6-6-6-6-------------------|
D--8-8-8-8-8-8-8-8-4-4-4-4-4-4-4-6-6-6-6-6-6-6-6-6-6-6-6-6-6-6-6-6-|
A--6-6-6-6-6-6-6-6-4-4-4-4-4-4-4-4-4-4-4-4-4-4-4-6-6-6-6-6-6-6-6-6-|
E------------------2-2-2-2-2-2-2-----------------4-4-4-4-4-4-4-4-4-|

E------------------------------------------|
B------------------------------------------|
G------------------------------------------|
D--6-6-6-6-6-6-6-6-6-6-6-6-6-6-6-6-6-6-6-6-|
A--6-6-6-6-6-6-6-6-6-6-6-6-6-6-6-6-6-6-6-6-|
E--4-4-4-4-4-4-4-4-4-4-4-4-4-4-4-4-4-4-4-4-|

GUITAR SOLO
E---11---11---11---11---11---11---11---11---11----11-11-11b-------------|
B---11---11---11---11---11---11---11---11---11--------------------11-11-|
G-13b--13b--13b--13b--13b--13b--13b--13b--13b---13----------13b---------|
D--------------------------------------------------------------13-------|
A-----------------------------------------------------------------------|
E-----------------------------------------------------------------------|

E-------11-------|
B-13-13----------|
G----------13----|
D----------------|
A----------------|
E----------------|

OUTRO
E----------------------------------------------|
B----------------------------------------------|
G----------------------------------------------|
D--4-4-4-4-4-4-4-4-4-4-4-4-4-4-4-4-4-4-4-4-4-4-|
A--4-4-4-4-4-4-4-4-4-4-4-4-4-4-4-4-4-4-4-4-4-4-|
E--2-2-2-2-2-2-2-2-2-2-2-2-2-2-2-2-2-2-2-2-2-2-|

E-------------------------------------------------------------------|
B-------------------------------------------------------------------|
G--6-6-6-6-6-6-6-6-6-6-6-6-6-6-6-6-6-6-6-6--------------------------|
D--6-6-6-6-6-6-6-6-6-6-6-6-6-6-6-6-6-6-6-6-6-6-6-6-6-6-6-6-6-6-6-6--|
A--4-4-4-4-4-4-4-4-4-4-4-4-4-4-4-4-4-4-4-4-6-6-6-6-6-6-6-6-6-6-6-6--|
E------------------------------------------4-4-4-4-4-4-4-4-4-4-4-4--|

E------------------------------------------------------------------------|
B------------------------------------------------------------------------|
G--------------------------6-6-6-5-5-3-3-----------------6-6-6-6-6-6-6-6-|
D--4-4-4-4-4-4-4-4-4-4-4-4-6-6-6-5-5-3-3-6-6-4-4-3-3-6-6-6-6-6-6-6-6-6-6-|
A--4-4-4-4-4-4-4-4-4-4-4-4-4-4-4-3-3-1-1-6-6-4-4-3-3-6-6-4-4-4-4-4-4-4-4-|
E--2-2-2-2-2-2-2-2-2-2-2-2---------------4-4-2-2-1-1-4-4-----------------|

E----------------------------------------------------------------------|
B----------------------------------------------------------------------|
G--6-6-6-6-6-6-6-6-6-6-----6-----6-----6-6-6-6-6-6-6-6-6-6-6-6-6-6-6---|
D--6-6-6-6-6-6-6-6-6-6-----6-----6-----6-6-6-6-6-6-6-6-6-6-6-6-6-6-6---|
A--4-4-4-4-4-4-4-4-4-4-----4-----4-----4-4-4-4-4-4-4-4-4-4-4-4-4-4-4---|
E----------------------------------------------------------------------|

BEGINNING
INTRO
VERSE
CHORUS
VERSE
CHORUS
BRIDGE
VERSE
CHORUS
GUITAR SOLO
OUTRO
Добавлено: 06.09.2013
Другие материалы по этой песне:
  • Аккорды и текст

Страница создана 06.09.2013
http://primanota.ru/sex-pistols/flowers-of-romance-chords.htm
Привет, Гость.
Предлагаем пройти революционный курс по гитаре.
Подарок от PrimaNota.Ru, забирай!