PrimaNota.ru - самый крупный в мире бесплатный архив песенных текстов, аккордов, табулатур и нот


Sex Pistols - Belson Was a Gas - текст песни, таба, видео

Регистрация Запомнить меня
Войти через:  Facebook Google Twitter Vk Yandex Mail.ru

Sex Pistols - Belson Was a Gas - текст песни, таба, видео

Печатать
Просмотров: 113
-------------------------------------------------------------------------------
			     Belson was a gas - sex pistols
-------------------------------------------------------------------------------
Tabbed by:
Email:

Tuning:normal    the intro is the same as the verse listen to the song for the
write timing palm mute the verse i cant be arsed to type that bit out
intro/verse
e|--------------------------------------------------------------------------|
B|--------------------------------------------------------------------------|
G|--6--6---4--4---6--6---7--7-----6--6-----4--4----9--9--9------------------|
D|--6--6---4--4---6--6---7--7-----6--6-----4--4----9--9--9------------------|
A|--4--4---2--2---4--4---5--5-----4--4-----2--2----7--7--7------------------|
E|--------------------------------------------------------------------------|

chorus thing
e|--------------------------------------------------------------------------|
B|--------------------------------------------------------------------------|
G|-5-------------5------------5---------------------------------------------|
D|-5---5--5--5---5--5--5--5---5--5--5--5--4/5-5-5--4/5-5-5------------------|
A|-3---5--5--5---3--5--5--5---3--5--5--5--4/5-5-5--4/5-5-5------------------|
E|-----3--3--3------3--3--3------3--3--3--2/3-3-3--2/3-3-3------------------|


| /  slide up
| \  slide down
| h  hammer-on
| p  pull-off
| ~  vibrato
| +  harmonic
| x  Mute note
Добавлено: 27.10.2013
Другие материалы по этой песне:
  • Аккорды и текст

Страница создана 09.06.2012
http://primanota.ru/sex-pistols/belson-was-a-gas-chords.htm
Привет, Гость.
Предлагаем пройти революционный курс по гитаре.
Подарок от PrimaNota.Ru, забирай!