PrimaNota.ru - самый крупный в мире бесплатный архив песенных текстов, аккордов, табулатур и нот


Sex Bob-omb - No Fun - текст песни, таба, бас-таба, видео

Регистрация Запомнить меня
Войти через:  Facebook Google Twitter Vk Yandex Mail.ru

Sex Bob-omb - No Fun - текст песни, таба, бас-таба, видео

Печатать
Просмотров: 546
------------------------------------------------------------------------
                             NO FUN - Sex Bob-omb (written by Beck)
------------------------------------------------------------------------
Tabbed by: Ed
Email:edmundlatham@hotmail.com

Tuning: Standard

Appears in the film Scott Pilgrim vs. The World, but not released on the 
soundtrack. Transcribed from full-length versions of Beck's original track that a 
couple of people have found and posted on YouTube. Not sure about the lyrics on 
the playout at the end - they're hard to hear on the track. Comments/crits/suggestions welcome.




CHORDS: A major, D major, B major


A major

e|----5-------------|
B|----5-------------|
G|-----6------------|
D|------7-----------|
A|------7-----------|
E|----5-------------|

D major

e|---------10-------|
B|---------10-------|
G|----------11------|
D|------------12----|
A|------------12----|
E|---------10-------|

B major

e|------7-----------|
B|------7-----------|
G|-------8----------|
D|--------9---------|
A|--------9---------|
E|------7-----------|



(FIRST VERSE)

A         D         B              D         A         D      B      D  
We're not havin' no fun, we're not havin' no fuu-uunn

A         D         B    D         A         D      B      D
We're not havin' no fun, havin' no fuu-uunn


(CHORUS)

B           D
Fuuuuuuu-uu-uuun

B           D
No fuuuu-uu-uuun


(FIRST GUITAR BREAK) 
(play staccato, slightly muted, in triplets)

    A    D    B    D      A    D    B    D
e|--------------------------------------------------|
B|--------------------------------------------------|
G|--4-6--446--446--676----4-6--446--446--676--------|
D|--------------------------------------------------|
A|--------------------------------------------------|
E|--------------------------------------------------|


(Repeat first line of first verse, straight into chorus, 
then guitar break x 3, then 2 x chorus)

(SECOND VERSE)

A     D     B      D     A     D    B    D
Na-na na-na na-na, na-na-naaa             

A     D     B      D     A     D    B    D
Na-na na-na na-na, na-na-naaa             

A     D     B      D     A     D  
Na-na na-na na-na, na-na-naaa      (jump straight to bridge)     


(BRIDGE)

B         D         A        D
We're not havin' no fun    

B         D         A        D
We're not havin' no fun

B         D         A        D
We're not havin' no fun    

B         D         A        D      B      D     A     D     B     D
We're not havin' no fun


(PLAYOUT)

A          D       B             D
My heart's racin', I don't wanna go

A          D       B             D
My heart's racin', I don't wanna go

A       D       B             D
I'm not afraid, I don't wanna go

A       D       B             D
I'm not afraid, I don't wanna go


(SECOND GUITAR BREAK)

    A    D    B    D      A    D    B    D
e|--------------------------------------------------|
B|--------------------------------------------------|
G|--646--646--646--676----646--646--646--676--------|
D|--------------------------------------------------|
A|--------------------------------------------------|
E|--------------------------------------------------|


(AND STOP!)
Добавлено: 09.03.2012
Вам также может быть интересно:
Другие материалы по этой песне:

Страница создана 09.03.2012
http://primanota.ru/sex-bob-omb/no-fun-chords.htm
Привет, Гость.
Предлагаем пройти революционный курс по гитаре.
Подарок от PrimaNota.Ru, забирай!