PrimaNota.ru - самый крупный в мире бесплатный архив песенных текстов, аккордов, табулатур и нот


Sewer - Ancient Shrine - таба, видео

Регистрация Запомнить меня
Войти через:  Facebook Google Twitter Vk Yandex Mail.ru

Sewer - Ancient Shrine - таба, видео

Печатать
Просмотров: 89
Уроки эстрадного вокала в Санкт-Петербурге
-------------------------------------------------------------------------------
                             Ancient Shrine - SEWER
-------------------------------------------------------------------------------

Song: Ancient Shrine
Album: Satanic Requiem
Band: SEWER

Tuning: Standard

Riff 1

e|---------------------------------------------------------------------------|
B|---------------------------------------------------------------------------|
G|---------------------------------------------------------------------------|
D|---------------------------------------------------------------------------|
A|-33334466-33334466-33334466-33332222---------------------------------------|
E|-11112244-11112244-11112244-11110000---------------------------------------|

Riff 2

e|---------------------------------------------------------------------------|
B|---------------------------------------------------------------------------|
G|---------------------------------------------------------------------------|
D|---------------------------------------------------------------------------|
A|-88887744-77774477-88887744-66666666---------------------------------------|
E|-66665522-55552255-66665522-44444444---------------------------------------|

Riff 3

e|---------------------------------------------------------------------------|
B|---------------------------------------------------------------------------|
G|---------------------------------------------------------------------------|
D|-77776655-77776655-77776655-7766-------------------------------------------|
A|-55554433-55554433-55554433-55445655---------------------------------------|
E|--------------------------------3433---------------------------------------|

Riff 4

e|---------------------------------------------------------------------------|
B|---------------------------------------------------------------------------|
G|---------------------------------------------------------------------------|
D|---------------------------------------------------------------------------|
A|-3---3-3-3-4-2-2--3---3-3-7-7-6-6------------------------------------------|
E|-1---1-1-1-2-0-0--1---1-1-5-5-4-4------------------------------------------|

Riff 5

e|---------------------------------------------------------------------------|
B|---------------------------------------------------------------------------|
G|---------------------------------------------------------------------------|
D|---------------------------------------------------------------------------|
A|-3333-6666-4444-4422--3333-6666-5555-4444----------------------------------|
E|-1111-4444-2222-2200--1111-4444-3333-2222----------------------------------|

Ending / Outro / Fade Out

e|---1-----------------1-----------------------------------------------------|
B|----1---1-------------1----------------------------------------------------|
G|-----1-1---------------1--1------------------------------------------------|
D|-3----3---3-6---7--3-----3-3-3-4---2---------------------------------------|
A|-3--------3-6---7--3---------3-4---2---------------------------------------|
E|-1--------1-4---5--1---------1-2---0---------------------------------------|


************************************

| /   slide up
| \   slide down
| h   hammer-on
| p   pull-off
| ~   vibrato
| +   harmonic
| x   Mute note
| b   Bend
| pb  Pre-bend
| br  Bend release
| pbr Pre-bend release
| brb Bend release bend

************************************
Добавлено: 25.12.2015
Другие материалы по этой песне:
  • Аккорды и текст

Страница создана 25.12.2015
http://primanota.ru/sewer/ancient-shrine-chords.htm
Привет, Гость.
Предлагаем пройти революционный курс по гитаре.
Подарок от PrimaNota.Ru, забирай!