PrimaNota.ru - самый крупный в мире бесплатный архив песенных текстов, аккордов, табулатур и нот


Severed Savior - One By One - таба, видео

Регистрация Запомнить меня
Войти через:  Facebook Google Twitter Vk Yandex Mail.ru

Severed Savior - One By One - таба, видео

Печатать
Просмотров: 70
--- S E V E R E D  S A V I O R ---
                                 "One By One"
                     From album: "Brutalty Is Law"


NOTES:
 " - tremolo riff
tr.. - tremolo picking notes
 x - hard palm muting
 = - sustained note

h - hammer on              ~ - vibrato
p - pull off               b - bend string
^ - pinch harmonics        p.m. - palm mute
x - muted note             t - right hand tap
/ - slide up               \ - slide down
tr - trill

Tuning (low to high): C#,F#,B,e,g#,c#

[Part 1]
-|-----------------------------------------------[x2]-|
-|----------------------------------------------------|
-|----------------------------------------------------|
-|-4---4---------------3-2----------------------------|
-|---3---3---------3-2--------------------4--------3--|
-|---------5-2-5-2---------4-1-4-1--2-2-1-2--3-3-2-1--|
 |tr..............................  . . . .  . . . .  |
-|-----------------------------------------------[x2]-|
-|----------------------------------------------------|
-|----------------------------------------------------|
-|-4---4---------------3-2----------------------------|
-|---3---3---------3-2--------------------4--------3--|
-|---------5-2-5-2---------4-1-4-1--2-2-1-2--3-3-2-1--|
  tr..............................  . . . .  . . . .

[Part 2]
-|----------------------------------------------------|
-|----------------------------------------------------|
-|----------------------------------------------------|
-|-4---4---------------3-2----------------------------|
-|---3---3---------3-2-----4-1-4-1--------4--------3--|
-|---------5-2-5-2---------4-1-4-1--2-2-1-2--3-3-2-1--|
 |tr...................... . . . .  . . . .  . . . .  |
-|----------------------------------------------------|
-|----------------------------------------------------|
-|----------------------------------------------------|
-|-7---7---------------6-5----------------------------|
-|---6---6---------6-5-----4-1-4-1--------4--------3--|
-|---------8-5-8-5---------4-1-4-1--2-2-1-2--3-3-2-1--|
  tr...................... . . . .  . . . .  . . . .

[Part 3]
-|----------------------------------------------------|
-|----------------------------------------------------|
-|----------------------------------------------------|
-|-4---4---------------3-2----------------------------|
-|---3---3---------3-2-----4-1-4-1--------4--------3--|
-|---------5-2-5-2---------4-1-4-1--2-2-1-2--3-3-2-1--|
 |tr...................... . . . .  . . . .  . . . .  |
-|----------------------------------------------------|
-|----------------------------------------------------|
-|-6---6----------------------------------------------|
-|---5---5-------------3-2----------------------------|
-|---------7-4-7-4-3-2-----4-1-4-1--------4--------3--|
-|-------------------------4-1-4-1--2-2-1-2--3-3-2-1--|
  tr...................... . . . .  . . . .  . . . .

[Outro 1]
-|---------------------------------|
-|---------------------------------|
-|---------------------------------|
-|-4---4---------------3-2---------|
-|---3---3---------3-2-------------|
-|---------5-2-5-2---------4-1-4-1-|
  tr..............................

[Part 4]
-|-----------------------------------------------------------|
-|-----------------------------------------------------------|
-|---------------------------------------------------------7-|
-|---------------7---------^---------------7-------5-5-6-3---|
-|-------5-5-6-3---------4-3-------5-5-6-3---3-4-2-----------|
-|-3-4-2-----------2-2-1-2---3-4-2---------------------------|
  tr.............. . . . .   tr.............................

-------------------|
-------------------|
-------------------|
-------------------|
-------4--------3--|
-2-2-1-2--3-3-2-1--|
 . . . .  . . . .

[Outro 2]                     [Part 5 (x4)]
-|-------------------------|-|-----------------------------------------|-|
-|-------------------------|-|-----------------------------------------|-|
-|-------------------------|-|-----------------------------------------|-|
-|-4-0---------3-0---------|-|-4-0---------3-0---------7-0-------------|-|
-|---------3-2-------------|-|---------3-2---------------------6-3-----|-|
-|-----5-0---------4-0-1-0-|-|-----5-0---------4-0-1-0-----8-0-----5-2-|-|
   . . . . . . . . . . . .     . . . . . . . . . . . . . . . . . . . .

[Part 6 (x3)]
-|----------------------------------------------------------|
-|----------------------------------------------------------|
-|----------------------------------------------------------|
-|-4-0---------3-0-------7--4-0---------3-2-7-0-------------|
-|---------3-2-----5-6-5------------3-2-------------6-3-----|
-|-----5-0----------------------5-0-------------8-0-----5-2-|
   . . . . . . . . tr.....  . . . . . . . . . . . . . . . .

[Part 7 (x2)]                            [Out]
-|-------------------------------------||---------|
-|-------------------------------------||---------|
-|-------------------------------------||---------|
-|-4-0---------3-0-----7-0-------------||-5==-4==-|
-|---------3-2-----------------6-3-----||-3==-2==-|
-|-----5-0---------4-0-----8-0-----5-2-||-3==-2==-|
   . . . . . . . . . . . . . . . . . .

[Part 8]
-|----------------------------------|----------------------|
-|----------------------------------|----------------------|
-|----------------------------------|----------------------|
-|-2---3-4-2---3-4-5-------5-6------|-2---3-4-2---3-4------|
-|-2-1-3-4-2-1-3-4-5-6-5-3-5-6------|-2-1-3-4-2-1-3-4------|
-|---1-------1-------6-5-3-----[x2]-|---1-------1-----[x2]-|
   . . . . . . . . . . . . . .        . . . . . . . .

[Part 9]
-|----------------------|------------------------|--------------|
-|----------------------|------------------------|--------------|
-|----------------------|------------------------|--------------|
-|----------------------|------------------------|-2---3-4------|
-|-2---3-4-2---3-4------|-22--3344-22--3344------|-2-1-3-4------|
-|---1-------1-----[x2]-|---11-------11-----[x2]-|---1-----[x4]-|
 |tr...............     | .................      | . . . .      |
-|----------------------|------------------------|--------------|
-|----------------------|------------------------|--------------|
-|----------------------|------------------------|--------------|
-|----------------------|------------------------|-2---3-4------|
-|-2---3-4-2---3-4------|-55--6677-55--6677------|-2-1-3-4------|
-|---1-------1-----[x2]-|---44-------44-----[x2]-|---1-----[x4]-|
  tr...............       .................        . . . .

[Part 10 (x2)]
-|------------------------------------------------------------------|
-|------------------------------------------------------------------|
-|---------------------4-5-----2-1----------------------------------|
-|-5-------5-6-5-4-3-2-4-5-3-2-2-1-5-------5-6-5-4-3-2-5--6-5-3--2--|
-|-5-6-5-3-5-6-5-4-3-2-----3-2-----5-6-5-3-5-6-5-4-3-2-5--6-5-3--2--|
-|---6-5-3---------------------------6-5-3--------------------------|
   . . . . . . . . . . . . . . . . . . . . . . . . . .

  [RIFF 9] [Part 11 (x2)]                [RIFF 10]
-|--------|-----------------------------|---------|
-|--------|-----------------------------|---------|
-|--------|-----------------------------|---------|
-|--------|-5-------5-6-2---3-4-2---3-4-|---[x2]--|
-|--------|-5-6-5-3-5-6-2-1-3-4-2-1-3-4-|---------|
-|--------|---6-5-3-------1-------1-----|---------|
            . . . . . . . . . . . . . .  \s o l o/

[Part 11]
-|------------------------------------[x3]-|-----------------------|
-|-----------------------------------------|-----------------------|
-|-----------------------------------------|-----------------------|
-|-------------------------2---------------|-----------------------|
-|-5"-5-------4"-4-------3-------2-1-------|-5"-5-------4"-4-------|
-|------5-4-3------4-3-2-----4-3-----3-2-1-|------5-4-3------4-3-2-|
 |    . . . .    . . . . . . . . . . . . . |    . . . .    . . . .
-|------------------------------------[x3]-|-----------------------|
-|-----------------------------------------|-----------------------|
-|-----------------------------------------|-----------------------|
-|-------------------------2---------------|-3"---------2"---------|
-|-5"-5-------4"-4-------3-------2-1-------|----5----------4-------|
-|------5-4-3------4-3-2-----4-3-----3-2-1-|------5-4-3------4-3-2-|
      . . . .    . . . . . . . . . . . . .      . . . .    . . . .

                        [Part 12]
-------------------|  -|--------------[x4]-|--------------[x4]-|
-------------------|  -|-------------------|-------------------|
-------------------|  -|-------------------|-------------------|
---2---------------|  -|---2---------------|---2---------------|
-3-------2-1-------|  -|-3-------2-1-------|-3-------2-1-------|
-----4-3-----3-2-1-|  -|-----4-3-----3-2-1-|-----4-3-----3-2-1-|
 . . . . . . . . . |   | . . . . . . . . . | . . . . . . . . . |
-------------------|  -|-------------------|-------------------|
-------------------|  -|-------------------|-------------------|
-------------------|  -|-------------------|-------------------|
---2---------------|  -|---2---------------|---6-5-------------|
-3-------2-1-------|  -|-3-------2-1-------|-7-------6-5-------|
-----4-3-----3-2-1-|  -|-----4-3-----3-2-1-|-------7-----6-5-4-|
 . . . . . . . . .       . . . . . . . . .   . . . . . . . . .

[Part 13]
-|---------------------------------|---------------------------------|
-|---------------------------------|---------------------------------|
-|---------------------------------|---------------------------------|
-|-4---4---------------3-2---------|-4---4---------------3-2---------|
-|---3---3---------3-2-------------|---3---3---------3-2-----4-1-4-1-|
-|---------5-2-5-2---------4-1-4-1-|---------5-2-5-2---------4-1-4-1-|
  tr..............................  tr...................... . . . .

  [PART 5]                   [PART 6]
-|--------|-----------------|--------|
-|--------|-----------------|--------|
-|--------|-----------------|--------|
-|--[x4]--|-6-0-------------|--[x3]--|
-|--------|---------5-2-----|--------|
-|--------|-----8-0-----4-1-|--------|
            . . . . . . . .

[Part 14 (x2)]
-|---------------------------------|----------------------------------|
-|---------------------------------|----------------------------------|
-|---------------------------------|----------------------------------|
-|-4---4---------------3-2---------|-4---4----------------------------|
-|---3---3---------3-2-------------|---3---3-------------3/5----------|
-|---------5-2-5-2---------4-1-4-1-|---------5-2-5-2-110-1/3-110-110--|
 |tr.............................. |tr.............. ...     ... ...
-|---------------------------------|----------------------------------|
-|---------------------------------|----------------------------------|
-|---------------------------------|----------------------------------|
-|-4---4---------------3-2---------|-7---7----------------------------|
-|---3---3---------3-2-------------|---6---6-------------3/5----------|
-|---------5-2-5-2---------4-1-4-1-|---------8-5-8-5-110-1/3-110-110--|
  tr..............................  tr.............. ...     ... ...

[ending 1]                    [ending 2]
------------------|           ------------------|
------------------|           ------------------|
------------------|           ------------------|
-----3322---------|           -----3322---------|
-3322-------------|           -3322-------------|
---------44114411-|           ---------44114411-|
 ................ |            ................ |
------------------|           ------------------|
------------------|           ------------------|
------------------|           ------------------|
-----3322---------|           -----6655---------|
-3322-------------|           -6655-------------|
---------44114411-|           ---------77447744-|
 ................              ................

[Part 15 (x2)]
-|---------------------------------------------------|
-|---------------------------------------------------|
-|-------------------------------7-------------------|
-|---------------7-------5-5-6-3---------------------|
-|-------5-5-6-3---3-4-2-----------------4--------3--|
-|-3-4-2---------------------------2-2-1-2--3-3-2-1--|
  tr.............................. . . . .  . . . .

/-------[P A U S E]------\

[Ending]
-|--------------------|
-|--------------------|
-|--------------------|
-|-----3322-----------|
-|-3322-------------2-|
-|---------44114411-0-|
   ................ . |
-|--------------------|
-|--------------------|
-|--------------------|
-|-----6655-----------|
-|-6655-------------2-|
-|---------77447744-0-|
   ................ .

END OF SONG
Добавлено: 26.11.2013
Другие материалы по этой песне:

Страница создана 10.05.2012
http://primanota.ru/severed-savior/one-by-one-chords.htm
Привет, Гость.
Предлагаем пройти революционный курс по гитаре.
Подарок от PrimaNota.Ru, забирай!