PrimaNota.ru - самый крупный в мире бесплатный архив песенных текстов, аккордов, табулатур и нот


Severed Savior - Buried Again - таба, видео

Регистрация Запомнить меня
Войти через:  Facebook Google Twitter Vk Yandex Mail.ru

Severed Savior - Buried Again - таба, видео

Печатать
Просмотров: 65
--- S E V E R E D  S A V I O R ---
                              "Buried Again"
                     From album: "Brutalty Is Law" 


NOTES:
 " - tremolo riff
tr.. - tremolo picking notes
 x - hard palm muting
 = - sustained note

h - hammer on              ~ - vibrato
p - pull off               b - bend string
^ - pinch harmonics        p.m. - palm mute 
x - muted note             t - right hand tap
/ - slide up               \ - slide down
tr - trill

Tuning (low to high): C#,F#,B,e,g#,c#

[Intro]
||-------------------------|---------------------------------------||
||-------------------------|---------------------------------------||
||-------------------------|---------------------------------------||
||-------------7"-6"-------|---------------------------------------||
||-8"-7"-------------5"-4"-|-7-8-7-6-7--5--------6-4-------7-8-7-6-||
||-------6"-5"-------------|-5-6-5-4-5--3--2"...-4-2-1"...-5-6-5-4-||
|                          | . . . . .  .        . .       . . . .  |
||-------------------------|---------------------------------------||
||-------------------------|---------------------------------------||
||-------------------------|---------------------------------------||
||-------------------------|---------------------------------------||
||-------------------------|-7-8-7-6-7--5--------6-4-------7-8-7-6-||
||-------------------------|-5-6-5-4-5--3--------4-2-------5-6-5-4-||
                             . . . . .  .        . .       . . . . 

[Part 1 (x5)]
||-------------------------|---------------------------------------||
||-------------------------|---------------------------------------||
||-------------------------|---------------------------------------||
||-------------7"-6"-------|---------------------------------------||
||-8"-7"-------------5"-4"-|-7-8-7-6-7--5--------6-4-------7-8-7-6-||
||-------6"-5"-------------|-5-6-5-4-5--3--2"...-4-2-1"...-5-6-5-4-||
|                          | . . . . .  .        . .       . . . .  |
||-------------------------|---------------------------------------||
||-------------------------|---------------------------------------||
||-------------------------|---------------------------------------||
||-------------7"-6"-------|---------------------------------------||
||-8"-7"-------------5"-4"-|-7-8-7-6-7--5--------6-4-------7-8-7-6-||
||-------6"-5"-------------|-5-6-5-4-5--3--2"...-4-2-1"...-5-6-5-4-||
                             . . . . .  .        . .       . . . .

[Part 2]                             
||------------------------------[x4]-||-||-------------------------------[x4]-||
||o---------------------------------o||-||o----------------------------------o||
||-----------------------------------||-||------------------------------------||
||----------7-0----------------------||-||----------7-0-----------------------||
||o-8-7---------6-5-8-7-----9-8-----o||-||o-8-7---------6-5---------8-7-5-7--o||
||------6-5-------------6-5-----7-6--||-||------6-5---------5-6-5-3-----------||
||  . . . . . . . . . . . . . . . .  || ||  . . . . . . . . . . . . . . . .   ||
||------------------------------[x4]-||-||-------------------------------[x4]-||
||o---------------------------------o||-||o----------------------------------o||
||-----------------------------------||-||------------------------------------||
||----------7-0----------------------||-||----------7-0-----------------------||
||o-8-7---------6-5-8-7-----9-8-----o||-||o-8-7---------6-5---------8-7-5-7--o||
||------6-5-------------6-5-----7-6--||-||------6-5---------5-6-5-3-----------||
    . . . . . . . . . . . . . . . .         . . . . . . . . . . . . . . . .

[Part 3 (x4)]  
||--------------------------|-----------------------|-
||o-------------------------|-----------------------|-
||--------------------------|-----------------------|-
||----------7-0-------------|---------------7-0-----|-
||o-8-7---------6-5---------|-7--5--8-7---------6-5-|-
||------6-5---------5-6-5-3-|-5--3------6-5---------|-
|   . . . . . . . . . . . . | .  .  . . . . . . . . |
||--------------------------|-----------------------|-
||o-------------------------|-----------------------|-
||--------------------------|-----------------------|-
||----------7-0-------------|---------------7-0-----|-
||o-8-7---------6-5---------|-7--5--8-7---------6-5-|-
||------6-5---------5-6-5-3-|-5--3------6-5---------|-
    . . . . . . . . . . . .   .  .  . . . . . . . .

-|-----------------------||
-|----------------------o||
-|-----------------------||
-|-----------------------||
-|-7--5-----------6--4--o||
-|-5--3--22222222-4--2---||
 | .  .           .  .    |
-|-----------------------||
-|----------------------o||
-|-----------------------||
-|-----------------------||
-|-7--5-----------6--4--o||
-|-5--3--22222222-4--2---||
   .  .           .  . 

[PART 2]

[Part 4a (x2)]
||--------------------------|-------------------------|-
||o-------------------------|-------------------------|-
||--------------------------|-------------------------|-
||--------------------------|-------------------------|-
||o-7---7---8---7---8---5---|-7---7---8---7---8---5---|-
||----5---5---5---5---5---5-|---5---5---5---5---5---5-|-
|   . . . . . . . . . . . . | . . . . . . . . . . . . |
||--------------------------|-------------------------|-
||o-------------------------|-------------------------|-
||--------------------------|-------------------------|-
||--------------------------|-------------------------|-
||o-7---7---8---7---8---5---|-7---7---8---7---8---5---|-
||----5---5---5---5---5---5-|---5---5---5---5---5---5-|-
    . . . . . . . . . . . .   . . . . . . . . . . . .

-|----------------------------------||
-|---------------------------------o||
-|----------------------------------||
-|---------7-6----------------------||
-|-7-6---------4-3---------8-7-5-7-o||
-|-----5-4---------5-4-3-2----------||
 | . . . . . . . . . . . . . . . .   |
-|----------------------------------||
-|---------------------------------o||
-|----------------------------------||
-|-6-5------------------------------||
-|-----5-4-4-3-7-0-5-4-2-4-8-7-5-7-o||
-|----------------------------------||
   . . . . . . . . . . . . . . . .

[Part 4b (x2)]
||--------------------------|-------------------------|-
||o-------------------------|-------------------------|-
||--------------------------|-------------------------|-
||--------------------------|-------------------------|-
||o-7---7---8---7---8---5---|-7---7---8---7---8---5---|-
||----5---5---5---5---5---5-|---5---5---5---5---5---5-|-
|   . . . . . . . . . . . . | . . . . . . . . . . . . |
||--------------------------|-------------------------|-
||o-------------------------|-------------------------|-
||--------------------------|-------------------------|-
||--------------------------|-------------------------|-
||o-7---7---8---7---8---5---|-7---7---8---7---8---5---|-
||----5---5---5---5---5---5-|---5---5---5---5---5---5-|-
    . . . . . . . . . . . .   . . . . . . . . . . . .

-|-------------------------|--------------------------||
-|-------------------------|-------------------------o||
-|-------------------------|--------------------------||
-|-5---5---6---5---6---3---|-5---5---6---5---6---3----||
-|---3---3---3---3---3---3-|---3---3---3---3---3---3-o||
-|-------------------------|--------------------------||
 | . . . . . . . . . . . . | . . . . . . . . . . . .   |
-|-------------------------|--------------------------||
-|-------------------------|-------------------------o||
-|-------------------------|--------------------------||
-|-5---5---6---5---6---3---|-5---5---6---5---6---3----||
-|---3---3---3---3---3---3-|---3---3---3---3---3---3-o||
-|-------------------------|--------------------------||
   . . . . . . . . . . . .   . . . . . . . . . . . .

[Outro]                                              [Part 5 (x4)]
|-------------------------|-------------------------||------------------|-
|-------------------------|-------------------------||o-----------------|-
|-------------------------|-------------------------||------------------|-
|-------------------------|-------------------------||----------3-------|-
|-7---7---8---7---8---5---|-7---7---8---7---8---5---||o---------------5-|-
|---5---5---5---5---5---5-|---5---5---5---5---5---5-||--1-5-1-5---1-5---|-
| . . . . . . . . . . . . | . . . . . . . . . . . . |   . . . .   . .   | 
|-------------------------|-------------------------||------------------|-
|-------------------------|-------------------------||o-----------------|-
|-------------------------|-------------------------||------------------|-
|-------------------------|-------------------------||----------3-------|-
|-7---7---8---7---8---5---|-7---7---8---7---8---5---||o---------------5-|-
|---5---5---5---5---5---5-|---5---5---5---5---5---5-||--1-5-1-5---1-5---|-
  . . . . . . . . . . . .   . . . . . . . . . . . .     . . . .   . . 

-|-----------------|-----------------|-----------------|---------------||
-|-----------------|-----------------|-----------------|--------------o||
-|-----------------|-----------------|-----------------|---------------||
-|---------5-----2-|-----------------|-------5-----7---|---9-----8\----||
-|-----------------|-----------------|-8-------2-2---4-|-4---6-6------o||
-|-1-5-1-5---0-1---|-1-5-1-5-0-0-0-0-|---5-5-----------|---------------||
 | . . . .   . .   | . . . . . . . . | . . . . . . . . | . . . .        |
-|-----------------|-----------------|-----------------|---------------||
-|-----------------|-----------------|-----------------|--------------o||
-|-----------------|-----------------|-----------------|---------------||
-|---------5-----2-|-----------------|-------5-----7---|---9-----8\----||
-|-----------------|-----------------|-8-------2-2---4-|-4---6-6------o||
-|-1-5-1-5---0-1---|-1-5-1-5-0-0-0-0-|---5-5-----------|---------------||
   . . . .   . .     . . . . . . . .   . . . . . . . .   . . . .

[INTRO] [PART 1 (x5)] [PART 3 (x4)] [PART 2] [PART 4a (x2)]

[Ending]
|-------------------------|-------------------------|-----------------|-
|-------------------------|-------------------------|-----------------|-
|-------------------------|-------------------------|-----------------|-
|-------------------------|-------------------------|---------3-------|-
|-7---7---8---7---8---5---|-7---7---8---7---8---5---|---------------5-|-
|---5---5---5---5---5---5-|---5---5---5---5---5---5-|-1-5-1-5---1-5---|-
| . . . . . . . . . . . . | . . . . . . . . . . . . | . . . . . . . . |
|-------------------------|-------------------------|-----------------|-
|-------------------------|-------------------------|-----------------|-
|-------------------------|-------------------------|-----------------|-
|-------------------------|-------------------------|---------3-------|-
|-7---7---8---7---8---5---|-7---7---8---7---8---5---|---------------5-|-
|---5---5---5---5---5---5-|---5---5---5---5---5---5-|-1-5-1-5---1-5---|-
  . . . . . . . . . . . .   . . . . . . . . . . . .   . . . . . . . .

-|-----------------|-----------------|-----------------|---------|----|
-|-----------------|-----------------|-----------------|---------|----|
-|-----------------|-----------------|-----------------|---------|----|
-|---------5-----2-|-----------------|-------5-----7---|---9-----|-6--|
-|-----------------|-----------------|-8-------2-2---4-|-4---6-6-|----|
-|-1-5-1-5---0-1---|-1-5-1-5-0-0-0-0-|---5-5-----------|---------|----|
 | . . . . . . . . | . . . . . . . . | . . . . . . . . | . . . . |
-|-----------------|-----------------|-----------------|---------|----|
-|-----------------|-----------------|-----------------|---------|----|
-|-----------------|-----------------|-----------------|---------|----|
-|---------5-----2-|-----------------|-------5-----7---|---9-----|-6--|
-|-----------------|-----------------|-8-------2-2---4-|-4---6-6-|----|
-|-1-5-1-5---0-1---|-1-5-1-5-0-0-0-0-|---5-5-----------|---------|----|
   . . . . . . . .   . . . . . . . .   . . . . . . . .   . . . .

END OF SONG
Добавлено: 04.08.2013
Вам также может быть интересно:
Другие материалы по этой песне:

Страница создана 04.08.2013
http://primanota.ru/severed-savior/buried-again-chords.htm
Привет, Гость.
Предлагаем пройти революционный курс по гитаре.
Подарок от PrimaNota.Ru, забирай!