PrimaNota.ru - самый крупный в мире бесплатный архив песенных текстов, аккордов, табулатур и нот


Severed Savior - Brutality Is Law - таба, видео

Регистрация Запомнить меня
Войти через:  Facebook Google Twitter Vk Yandex Mail.ru

Severed Savior - Brutality Is Law - таба, видео

Печатать
Просмотров: 59
Band:  Severed Savior 
Album: Brutality Is Law 
Song:  Brutality Is Law 



.  - palm mute           /  - slide up to 
\  - slide down to       ~  - vibrato 
h  - hammer on           b  - Bend 
p  - pull off            Suffixes for bend 
t  - tap                 f  - full bend    h - half bend 
ph - pinched harmonic    q  - quarter bend t - tap bend 
*  - see comment         ^  - Hold bend    r release bend 
x  - Stuccatto           ~  - vibrato bend 
,  - slight palm mute    () - ghost note, sustained note 
"  - tremolo note        <> - Trill 

Tuning C# 

OK, this was pretty hard to tab, so don't expect 
it to be perfect, but it should at least give a 
good idea of how to play it. Pay attention to 
the song, some stuff it pretty damn hard to hear. 
Contact me for corrections or question. 

Enjoy! 



Intro Guitar 1   00:00             2x 
|-----------------------------------| 
|-----------------------------------| 
|-----------------------------------| 
|-7"-------6-5-4-3-7"---6-5-4-3-4-3-| 
|---6"5"7"-4-3-2-1---6"-4-3-2-1-2-1-| 
|----------4-3-2-1------4-3-2-1-2-1-| 
|          . . . .      . . . . . . 
| 
| 
| 
|Guiatar 2 
|-----------------------------------| 
|-----------------------------------| 
|-----------------------------------| 
|----------6-5-4-3------6-5-4-3-4-3-| 
|----------4-3-2-1------4-3-2-1-2-1-| 
|----------4-3-2-1------4-3-2-1-2-1-| 
           . . . .     . . . . . . 


Riff 1  00:07                                                            2x 
|--------------------------------------------------------------------------| 
|--------------------------------------------------------------------------| 
|-----------------------------------------------------------6--------------| 
|-7"----------8"---7"-------6-5---------------------------5----------------| 
|---6"5"7"8"7"--7"---6"5"7"-4-3-------------------------4------------------| 
|---------------------------4-3-4-3-1-0-1-3-4-6-8-8-7-6-------444488333377-| 
                            . . . . . . . . . . . . . . 


Riff 2 00:20                                                               1x 
|-----------------------------------------------------------------------------| 
|-----------------------------------------------------------------------------| 
|-----------------------------------------------------------------------------| 
|-7"----------8"---7"-------6-5-----------------7"----------8"---7"-------6-5-| 
|---6"5"7"8"7"--7"---6"5"7"-4-3-------------------6"5"7"8"7"--7"---6"5"7"-4-3-| 
|---------------------------4-3-4-3-1-0-111-111---------------------------4-3-| 
                            . . . . . . ... ...                           . . 


|------------------------------------------| 
|------------------------------------------| 
|------------------------------------------| 
|----------------------------------------7-| 
|-----------------6"5"--5"-2-----------6---| 
|-4-3-1-0-111-111-----2"---2-0-1-3-4-5-----| 
  . . . . ... ...          . . . . . . . . 

Riff 3    00:30                                                            1x 
|----------------------------------------------------------------------------| 
|----------------------------------------------------------------------------| 
|-----------------------------------------------------------6----------------| 
|-7"----------8"---7"-------6-5---------------------------5------------------| 
|---6"5"7"8"7"--7"---6"5"7"-4-3-------------------------4------------------2-| 
|---------------------------4-3-4-3-1-0-1-3-4-6-8-8-7-6-------444488333377-2-| 
                            . . . . . . . . . . . . . .                    . 


Riff 4a 00:37                               3x 
|------------------------------------------| 
|------------------------------------------| 
|------------------------------------------| 
|------------------------------------------| 
|--------------2-2-9-7-10-7-13-10--------7-| 
|--5-3-6-3-9-6-0-0----------------7-9-10---| 
               . .          


Riff 4b 00:50 Guitar 1                    1x 
|------------------------------------------| 
|------------------------------------------| 
|------------------------------------------| 
|------------------------------------------| 
|--------------2-2-9-7-10-7-13-10--------7-| 
|--5-3-6-3-9-6-0-0----------------7-9-10---| 
|              . .          
| 
| 
| 
|Guitar 2 
|--------------------------------------| 
|--------------------------------------| 
|--------------------------------------| 
|--------------------------------------| 
|--------------2-2-5-3-6-3-9-6-------3-| 
|--5-3-6-3-9-6-0-0-------------3-5-6---| 
               . .          


Riff 5a 00:54  (those are 2s not 22s)       2x 
|-------------------------------------------| 
|-------------------------------------------| 
|-------------------------------------------| 
|-------------------------------------------| 
|-------------------9-7-10-7-13-10--------7-| 
|-5-3-6-3-22/3-22/3----------------7-9-10---| 
  . . . . .. . .. . . . .  . .  .  . . .  . 



Riff 5b 00:58  (those are 2s not 22s)       2x 
|------------------------------------------| 
|------------------------------------------| 
|------------------------------------------| 
|------------------------------------------| 
|------------------9-7-10-7-13-10--------7-| 
|-5-3-6-3-9-6-22/3----------------7-9-10---| 
  . . . . . . .. . . . .  . .  .  . . .  . 


Riff 6  1:03                          1x 
|---------------------------------------| 
|---------------------------------------| 
|---------------------------------------| 
|---------------------------------------| 
|---8"7"--10"9"--------8-7--------------| 
|-5"----8"-----10"9"-5-----8-10-8-7-8-8-| 
                     . . . . .  . . . . 



Fill Guitar 1  1:06   1x 
|--------------------| 
|--------------------| 
|--------------------| 
|--------------------| 
|---8-7--------------| 
|-5-----8-10-8-7-8-8-| 
| . . . . .  . . . . 
| 
| 
| 
| 
|Guitar 2 
|-------------------| 
|-------------------| 
|-------------------| 
|-------------------| 
|---6-5-------------| 
|-3-----6-8-6-5-6-6-| 
  . . . . . . . . . 


Riff 7 1:07                                          1x 
|-----------------------------------------------------| 
|-----------------------------------------------------| 
|-6-5-----8-7-----------------------------------------| 
|-----6-5-----8-7-5-4-7-6-------------------4-3-3-2-3-| 
|-------------------------4-3-6/7-6-5-6-4-3-----------| 
|-----------------------------------------------------| 
 . . . . . . . . . . . . . . . .. . . . . . . . . . . 


1:11                                                       1x 
|----------------------------------------------------------| 
|----------------------------------------------------------| 
|----------------------------------------------------------| 
|----------------------------------------------------------| 
|---8"7"--10"9"--------8-7----------------8-7--------------| 
|-5"----8"-----10"9"-5-----8-10-8-7-8-8-5-----8-10-8-7-8-8-| 
                     . . . . .  . . . . . . . . . . . . .    


1:16                                                   3x 
|-------------------------------------------------------| 
|-------------------------------------------------------| 
|-6-5-----8-7-------------------------------------------| 
|-----6-5-----8-7-5-4-5-6---------------------4-3-3-2-3-| 
|-------------------------4-3-6-7-5-4-5-6-4-3-----------| 
|-------------------------------------------------------| 
  . . . . . . . . . . . . . . . . . . . . . . . . . . . 
                    

 1:27                                                    1x 
|---------------------------------------------------------| 
|---------------------------------------------------------| 
|-6-5-----8-7---------------------------------------------| 
|-----6-5-----8-7-5-4-5-6---------------------4-3-3-2-4-5-| 
|-------------------------4-3-6-7-5-4-5-6-4-3-------------| 
|---------------------------------------------------------| 
  . . . . . . . . . . . . . . . . . . . . . . . . . . . . 
                    

Riff 8    1:32                                                       4X 
|---------------------------------------------------------------------| 
|---------------------------------------------------------------------| 
|---------------------------------------------------------------------| 
|-7"---6-5-4-3-4-3-7"-------6-5-4-3-7"---6-5-4-3-4-3-7"----------8"---| 
|---6"-4-3-2-1-2-1---6"5"7"-4-3-2-1---6"-4-3-2-1-2-1---6"5"7"8"7"--7"-| 
|------4-3-2-1-2-1----------4-3-2-1------4-3-2-1-2-1------------------| 
       . . . . . .          . . . .      . . . . . .    


Fill  2:01               1x 
|-------------------------| 
|-------------------------| 
|-------------------------| 
|-------------------------| 
|-6-------5---------------| 
|---3-5-4---2-4-3-2-1-0-1-| 
  . . . . . . . . . . . . 


Riff 9 2:03                                                                  3x 
|-----------------------------------------------------------------------------| 
|-----------------------------------------------------------------------------| 
|---------------------------------------------------------------5-------------| 
|--------6"5"-------------------------------------------------4---------------| 
|6"5"8"7"----4"7"-6-------5---------------------------------3-----------------| 
|-------------------3-5-4---2-4-3-2-1-0-1-2-1-2-3-4-6-6-5-4-------444488333377| 
            . . . . . . . . . . . . . . . . . . . . . . . . 


Fill 2:23 
|------------------| 
|------------------| 
|------------------| 
|---------6"5"-----| 
|-6"5"8"7"----4"7"-| 
|------------------| 



Riff 10  2:24                                          3x 
|-------------------------------------------------------| 
|-------------------------------------------------------| 
|-6-5-----8-7-------------------------------------------| 
|-----6-5-----8-7-5-4-5-6---------------------4-3-3-2-3-| 
|-------------------------4-3-6-7-5-4-5-6-4-3-----------| 
|-------------------------------------------------------| 
  . . . . . . . . . . . . . . . . . . . . . . . . . . . 
                    

  2:35                                                   1x 
|---------------------------------------------------------| 
|---------------------------------------------------------| 
|-6-5-----8-7---------------------------------------------| 
|-----6-5-----8-7-5-4-5-6---------------------4-3-3-2-4-5-| 
|-------------------------4-3-6-7-5-4-5-6-4-3-------------| 
|---------------------------------------------------------| 
  . . . . . . . . . . . . . . . . . . . . . . . . . . . . 



Riff 5b 2:38                               4x 
|------------------------------------------| 
|------------------------------------------| 
|------------------------------------------| 
|------------------------------------------| 
|------------------9-7-10-7-13-10--------7-| 
|-5-3-6-3-9-6-22/3----------------7-9-10---| 
  . . . . . . .. . . . .  . .  .  . . .  . 


Fill Guitar 1 2:47 
|-----------------| 
|-----------------| 
|-----------------| 
|-----------------| 
|-------------2-2-| 
|-5-3-6-3-9-6-0-0-| 
|             . . 
| 
| 
| 
|Guitar 2 
|-----------------| 
|-----------------| 
|-----------------| 
|-----------------| 
|-------------2-2-| 
|-------------0-0-| 
              . . 



Riff 4a   (under solo)      2:49           5x 
|-----------------------------------------| 
|-----------------------------------------| 
|-----------------------------------------| 
|-----------------------------------------| 
|-------------2-2-9-7-10-7-13-10--------7-| 
|-5-3-6-3-9-6-0-0----------------7-9-10---| 
              . .          


Ending 3:10 
|-----------------------------------------------| 
|-----------------------------------------------| 
|-----------------------------------------------| 
|-7"----------8"---7"-------6-5-----------------| 
|---6"5"7"8"7"--7"---6"5"7"-4-3-----------------| 
|---------------------------4-3-4-3-1-0-111-111-| 
                            . . . . . . ... ...        

|----------------------------------------------------------------------------| 
|----------------------------------------------------------------------------| 
|-----------------------------------------------------------6----------------| 
|-7"----------8"---7"-------6-5---------------------------5------------------| 
|---6"5"7"8"7"--7"---6"5"7"-4-3-------------------------4------------------2-| 
|---------------------------4-3-4-3-1-0-1-3-4-6-8-8-7-6-------444488333377-2-| 
                            . . . . . . . . . . . . . .                    . 

End.
Добавлено: 10.11.2013
Другие материалы по этой песне:
  • Аккорды и текст

Страница создана 10.11.2013
http://primanota.ru/severed-savior/brutality-is-law-chords.htm
Привет, Гость.
Предлагаем пройти революционный курс по гитаре.
Подарок от PrimaNota.Ru, забирай!