PrimaNota.ru - самый крупный в мире бесплатный архив песенных текстов, аккордов, табулатур и нот


Severed Savior - Bloody Prolapse - таба, видео

Регистрация Запомнить меня
Войти через:  Facebook Google Twitter Vk Yandex Mail.ru

Severed Savior - Bloody Prolapse - таба, видео

Печатать
Просмотров: 79
--- SEVERED SAVIOR ---
                               "Bloody Prolapse" 
                     From album: "Brutality Is Law" (2003)
                     

NOTES:
 " - tremolo
() - tremolo picking note
*  - tremolo picking notes
 x - hard palm muting
 = - sustained note

h - hammer on              ~ - vibrato
p - pull off               b - bend string
^ - pinch harmonics        p.m. - palm mute 
x - muted note             t - right hand tap
/ - slide up               \ - slide down

Tune to C#

Riff 1a (x3)                          Riff 1b
-|-----------------------------------|-------------------------|
-|-----------------------------------|-------------------------|
-|--------------------------10-9-7-9-|-------------------------|
-|---------8-7-5-7-10-9-7-9----------|---------8-7-5-7---------|
-|-6-5-3-5---------------------------|-6-5-3-5---------5-4-3-4-|
-|-----------------------------------|-----------------3-2-1-2-|
   . . . . . . . . .  . . . .  . . .   . . . . . . . . . . . .

Riff 2a                             Riff 2b
-|---------------------------------|-----------------------------------|
-|---------------------------------|-----------------------------------|
-|---------------------------------|--------------------------10-9-7-9-|
-|---------8-7-5-7-----------------|---------8-7-5-7-9-7-9-10----------|
-|-6-5-3-5---------6-5-3-5---------|-6-5-3-5---------------------------|
-|-------------------------6-5-3-5-|-----------------------------------|
   . . . . . . . . . . . . . . . .   . . . . . . . . . . . .  .  . . .

RIFF 2a
RIFF 1b

Riff 3 (x3)
-|----------------|-[ending 1]-------------------|
-|----------------|------------------------------|
-|----------------|------------------------------|
-|----------------|------------------------------|
-|-4-3-------1"5"-|-8-7-3"--------------3"-------|
-|-2-1-4"3"4"-----|-6-5---4"3"4"6"4"3"4"--4"3"4"-|
   . .              . .

RIFF 3 [1 bar]

Outro 1
-|-------------------|
-|-------------------|
-|-------------------|
-|-------------------|
-|-0-1-2-1-2-5-4-3-2-|
-|-5-1-2-1-2-3-2-1-0-|
   . . . . . . . . .

RIFF 1a (x3)
RIFF 1b
RIFF 2a
RIFF 2b
RIFF 2a
RIFF 2b
RIFF 2a
RIFF 2b
RIFF 2a
RIFF 1b

Riff 4 (x2)
-|------------------|------------------------------------------|
-|------------------|------------------------------------------|
-|------------------|------------------------------------------|
-|------------------|------------------------------------------|
-|-----5"--8"-------|-5-4-3-4-3"--------5"-----1-2-5-4-6-5-4-3-|
-|-5"6"--6"--6"5"6"-|-3-2-1-2---4"3"4"6"--6"5"-1-2-3-2-6-5-4-3-|
                      . . . .                  . . . . . . . .
Riff 5
-|-----------------------------------|
-|-----------------------------------|
-|-----------------------------------|
-|-----------------------3-----8--7--|
-|-3"--------------------3-4-3-6--5--|
-|---4"3"4"6"5"4"3"-[x3]---4-3-6--5--|
                         . . .

Riff 6 (x2)
-|----------------------------------|
-|----------------------------------|
-|----------------------------------|
-|-3--------------------3-----8--7--|
-|-3-4-3-4-6-5-4-3------3-4-3-6--5--|
-|---4-3-4-6-5-4-3-[x3]---4-3-6--5--|
   . . . . . . . .      . . . 

Riff 7 (x6)
-|-------------------------|
-|-------------------------|
-|-------------------------|
-|-0-9-7-0-5-0-0-6-0-9-7---|
-|-----------------------9-|
-|-------------------------|
   . . . . . . . . . . . .

Riff 8 (x2)
-|------------------|-[ending 1]------------------|
-|------------------|-----------------------------|
-|---------4"0"-----|-----------------------------|
-|-5"2"--------3"0"-|----------9-----------7------|
-|-----3"-----------|-10-7-------10-7-------------|
-|-------3"---------|------8-7--------9-10---10-9-|
                      .  . . . . .  . . .  . .  .

|-[ending 2]--------------------------|
|-----------------------------8p6-----|
|-------------------------------------|
|----------9-----------7----------8p6-|
|-10-7-------10-7---------------------|
|------8-7--------9-10---10-9---------|
  .  . . . . .  . . .  . .  .

Outro 2
-|---------|
-|---------|
-|---------|
-|---------|
-|-5-4-3-4-|
-|-3-2-1-2-|
   . . . .

Riff 9a
-|------------------------------------------|
-|------------------------------------------|
-|------------------------------------------|
-|----------9-------------------------------|
-|-10-7-------10-7------12------10-10-10-10-|
-|------8-7--------8-10----9h10-10-10-10-10-|
   .  . . . . .  . . .  .       .  .  .  .

Riff 9b
-|------------------------------------------|
-|------------------------------------------|
-|------------------------------------------|
-|----------9-------------------------------|
-|-10-7-------10-7------12------7-----------|
-|------8-7--------8-10----9h10-7-----------|
   .  . . . . .  . . .  .

RIFF 9a
RIFF 9b
RIFF 9a
RIFF 9b
RIFF 9a
RIFF 9b
RIFF 7 (x4)
RIFF 9 (all) (x4)
RIFF 1
RIFF 2
RIFF 5
RIFF 6 (x2)

END OF SONG
Добавлено: 05.06.2013
Другие материалы по этой песне:

Страница создана 05.06.2013
http://primanota.ru/severed-savior/bloody-prolapse-chords.htm
Привет, Гость.
Предлагаем пройти революционный курс по гитаре.
Подарок от PrimaNota.Ru, забирай!