PrimaNota.ru - самый крупный в мире бесплатный архив песенных текстов, аккордов, табулатур и нот


Seventh Day Slumber - Chris Letter - текст песни, таба, видео

Регистрация Запомнить меня
Войти через:  Facebook Google Twitter Vk Yandex Mail.ru

Seventh Day Slumber - Chris Letter - текст песни, таба, видео

Печатать
Просмотров: 134
Song: Chris' Letter
Album: Once Upon A Shattered Life
Artist: Seventh Day Slumber

I hope you all have as much fun playing this as I do.
This is only the lead guitar part. I played through many
times and everything sounds about right.
Criticize if I need it and I will fix any errors. Thanks!

Intro:
E------------------------------------------|
B------------------------------------------|
G------------------------------------------|
D-0h2-2p0-0h2-2p0-540-0h2-2p0-0h2-2p0------|
A-0h2-2p0-0h2-2p0-540-0h2-2p0-0h2-2p0----5-|
D-0h2-2p0-0h2-2p0-540-0h2-2p0-0h2-2p0-5h7--|  (x2)


Verse:
E|--------------------------------------------------------------------------|
B|-5-----------5-5-5----------------------5-----------5-5-5-----------------|
G|----------------------------------9-------------------------------------9-|
D|---5-------5----5-------9------9----------5-------5----5-------9------9---|
A|-----5---5------------7------7--------------5---5------------7------7-----|
D|--------------------9------7-------------------------------9------7-------|


E|--------------------|
B|--------------------|
G|5-55-5-5--9-99-9-9--|
D|5-55-5-5--9-99-9-9--|
A|5-55-5-5--7-77-7-7--|
D|5-55-5-5--7-77-7-7--|


e|--------------------|------------------|----------------xxxx-|
B|--------------------|------------------|----------------xxxx-|
G|-------------2r0----|-5x55-5-9-9-xx-9--|-5xx55-5xx55555-xxxx-|
D|-0h2-2-0h2-2--------|-5x55-5-7-7-xx-7--|-5xx55-5xx55555-xxxx-|
A|-0h2-2-0h2-2--------|-3x33-3-0-0-xx-0--|-3xx33-3xx33333-xxxx-|
E|-0h2-2-0h2-2---(x2)-|------------------|----------------xxxx-|


Chorus:
E---------------|----------------|
B---------------|----------------|
G---------------|-----2p0--------|
D-2-0----5---10-|-2-0-----5---10-|
A-2-0----5---10-|-2-0-----5---10-|
D-2-0----5---10-|-2-0-----5---10-| (x2) (second time through, 10's are 5's)


E------------------------------------------|
B------------------------------------------|
G------------------------------------------|
D-0h2-2p0-0h2-2p0-540-0h2-2p0-0h2-2p0------|
A-0h2-2p0-0h2-2p0-540-0h2-2p0-0h2-2p0----5-|
D-0h2-2p0-0h2-2p0-540-0h2-2p0-0h2-2p0-5h7--|  (x2)

(Verse)

Chorus:
E---------------|----------------|
B---------------|----------------|
G---------------|-----2p0--------|
D-2-0----5---10-|-2-0-----5---10-|
A-2-0----5---10-|-2-0-----5---10-|
D-2-0----5---10-|-2-0-----5---10-| (x2)

Bridge:

E----------------|----------|
B----------------|----------|
G----------------|--555-777-|
D-2-0-2-0-023-3x-|--555-777-|
A-2-0-2-0-023----|--333-555-|
D-2-0-2-0-023----|----------| (x2)

(Chorus)

(Intro Riff)
Добавлено: 24.05.2012
Другие материалы по этой песне:
  • Аккорды и текст

Страница создана 28.04.2012
http://primanota.ru/seventh-day-slumber/chris-letter-chords.htm
Привет, Гость.
Предлагаем пройти революционный курс по гитаре.
Подарок от PrimaNota.Ru, забирай!