PrimaNota.ru - самый крупный в мире бесплатный архив песенных текстов, аккордов, табулатур и нот


Seventh Dan Counterforce - Ciphers - таба, видео

Регистрация Запомнить меня
Войти через:  Facebook Google Twitter Vk Yandex Mail.ru

Seventh Dan Counterforce - Ciphers - таба, видео

Печатать
Просмотров: 86
-------------------------------------------------------------------------------
                             Cipher - Seventh Dan Counterforce
-------------------------------------------------------------------------------
Tabbed by: Thundershaper
E-mail: Thundershaper91@hotmail.com

Tuning: (half step down)
       
         Eb - Ab -Db - Gb - Bb - eb

Hi, this is my first tab but I wanted this riff with everyone since it kicks so much ass.

This song from the great teacher and player Chris Zoupa's first solo album "7 Year Storm". 

Ps: I know that he plays this with a 7 string (and his nails) but for this riff the extra string is not needed
so I didn't tab it with that string section, hope that makes sense ;)   

(after the clean intro part)

e|---------------------------------------------------------12----10-----------------------|
B|--------------------------------------------13--------13----13----12-----13-------------|
G|-------9-------9--12-------12--14--12-12-14-----13-14----------------12-----------14\12-|
D|----10---10-10-------12h14-------------------------------------------------14p12--------|
A|/12-------------------------------------------------------------------------------------|
E|----------------------------------------------------------------------------------------|

e|-----------------------------9-------9-12--/9-------------------------------------------|
B|--------------------------10---10-10----------10p9p7-/9---------------------------------|
G|------9-------9--13--9h11-------------------------------9p7p6---------------------------|
D|---11---11-11-------------------------------------------------/11p9----------9-11\------|
A|12------------------------------------------------------------------12-11-12------------|
E|----------------------------------------------------------------------------------------|

e|----------------------------------------------------------------------------------------|
B|------------------------9-----9-10--/9--------------------------------------------------|
G|-----6------6-9-------9---9-9----------6----/9-----------7------------------------------|
D|---7----7-7------9h11--------------------9-----7----9-11---11-9-7-----------------------|
A|9------------------------------------------------9--------------------------------------|
E|----------------------------------------------------------------------------------------|

e|--------9-------9--12--9----------------------------------------------------------------|
B|-----10---10-10------------------------------------10-----10/12\10----------------------|
G|9h11---------------------/13--14--13--9---------9-----9-9----------9--------------------|
D|-----------------------------------------11h12-----------------------/11-12-11~~~-------|
A|----------------------------------------------------------------------------------------|
E|----------------------------------------------------------------------------------------|


************************************

| /   slide up
| \   slide down
| h   hammer-on
| p   pull-off
| ~   vibrato


************************************
Добавлено: 31.12.2015
Другие материалы по этой песне:
  • Аккорды и текст

Страница создана 31.12.2015
http://primanota.ru/seventh-dan-counterforce/ciphers-chords.htm
Привет, Гость.
Предлагаем пройти революционный курс по гитаре.
Подарок от PrimaNota.Ru, забирай!