PrimaNota.ru - самый крупный в мире бесплатный архив песенных текстов, аккордов, табулатур и нот


Seventh Angel - Woken By Silence - таба, видео

Регистрация Запомнить меня
Войти через:  Facebook Google Twitter Vk Yandex Mail.ru

Seventh Angel - Woken By Silence - таба, видео

Печатать
Просмотров: 59
		   "WOKEN BY SILENCE"  (Intro)
as recorded by Seventh Angel
on the 1991 Edge Music release 
Lament for the Weary
~~~~~~~~~~~~~~~~~~~~

written by Ian Arkley and Simon Bibby
transcribed by Mike Pilato

If you are attempting to learn this song, you have one of two very
interesting characteristics about yourself:
	1)  you will attempt to play anything whether you know it
		or not
	2)  you know of this group and thus stand with the minority
		of others that do also.
A simple piece, but enjoy anyway! --Mike
~~~~~~~~~~~~~~~~~~~~~~~~~~~~~~~~~~~~~~~~~~~~~~~~~~~~~~~~~~~~~~~~~~~~~


p = pull off
h = hammer on
/ = slide
TIME = 3/4
tune guitars down 1 whole step [DGCFAd]


   gtr1 (rich classical sound....aaaaah...)
||--7---7-7-7-----|--5---5-5-5-----|--3---3-3-3-----|--0---0---------|
||--8---8-8-8-----|--7---7-7-7-----|--5---5-5-5-----|----------0-----|
||*---------------|----------------|----------------|----------------|
||*---------------|----------------|----------------|----------------|
||--7---7-7-7-----|--5---5-5-5-----|--3---3-3-3-----|--2---1---------|
||----------------|----------------|----------------|----------2-----|
|
|  gtr2 (strum pattern = up, down)
||--0---0---------|--0---0---------|--0---0---------|----------------|
||--0---0---------|--0---0---------|--0---0---------|----------------|
||*-9---9---------|--7---7---------|--5---5---------|----------------|
||*-9---9---------|--7---7---------|--5---5---------|----------------|
||--7---7---------|--5---5---------|--3---3---------|----------------|
||----------------|----------------|----------------|----------------|


_________________  _______________________________
|1               ||2
   gtr1
|----------------||----------------|--7-----8-7h8p7p0|--0---5---5------|
|--0-------------||--0-------7-----|-----------------|-----------------|
|---------------*||----------------|-----------------|-----------------|
|---------------*||----------------|--7---7---7------|--5---5---5h7p5p0|
|----------------||----------7-----|-----------------|-----------------|
|--0-------------||--0-------------|-----------------|-----------------|



   gtr1
|--3p2-3---3/(5)--|--5-------------|
|-----------------|----------------|
|-----------------|----------------|
|--2---2----------|----------------|
|----------2/(5)--|--5-------------|
|-----------------|----------------|



   gtr1 
||--7---7-7-7-----|--5---5-5-5-----|--3---3-3-3-----|--0---0---------|
||--8---8-8-8-----|--7---7-7-7-----|--5---5-5-5-----|----------0-----|
||----------------|----------------|----------------|----------------|
||----------------|----------------|----------------|----------------|
||--7---7-7-7-----|--5---5-5-5-----|--3---3-3-3-----|--2---1---------|
||----------------|----------------|----------------|----------2-----|
|
|  gtr2 
||--0---0---------|--0---0---------|--0---0---------|----------------|
||--0---0---------|--0---0---------|--0---0---------|----------------|
||--9---9---------|--7---7---------|--5---5---------|----------------|
||--9---9---------|--7---7---------|--5---5---------|----------------|
||--7---7---------|--5---5---------|--3---3---------|----------------|
||----------------|----------------|----------------|----------------|



   gtr1
|----------------||------3-2-3-----|--5-------------|------3-2-3-----|
|--0-------0-0---||--0-------------|----------0-0---|--0-------------|
|----------------||*---------------|----------------|----------------|
|----------------||*-----2-2-2-----|--0-------------|------2-2-2-----|
|----------------||----------------|----------------|----------------|
|--0-------3-2---||--0-------------|----------3-2---|--0-------------|

_________________________ __________________________
|1                       ||2 
   gtr1	   (pause)	     (irregular meter)       (let ring)	
|--7---5-----------------||--7---5---------2-2h3p2p0-2-------||
|------------------0-0---||----------------------------------||
|-----------------------*||----------------------------------||
|--0---0----------------*||--0---0---------0-0-------0-------||
|------------------------||----------------------------------||
|------------------3-2---||----------------------------------||


____________________________________________________________________
|  For questions (though this piece isn't that difficult) :        |
|  	cmpilato@mosaic.uncc.edu                                   |
|								   |
|  "The thief comes in order to Steal, Kill, and Destroy.  I have  |
|	come in order that you might have life--life in all its    |
|	fullness" --Jesus Christ (John 10:10)			   |
|__________________________________________________________________|

     
Добавлено: 18.06.2013
Другие материалы по этой песне:
  • Аккорды и текст

Страница создана 18.06.2013
http://primanota.ru/seventh-angel/woken-by-silence-chords.htm
Привет, Гость.
Предлагаем пройти революционный курс по гитаре.
Подарок от PrimaNota.Ru, забирай!