PrimaNota.ru - самый крупный в мире бесплатный архив песенных текстов, аккордов, табулатур и нот


Sevendust - X Mas Day - текст песни, таба, видео

Регистрация Запомнить меня
Войти через:  Facebook Google Twitter Vk Yandex Mail.ru

Sevendust - X Mas Day - текст песни, таба, видео

Печатать
Просмотров: 208
I love this song. It also shows Clint's awesome voice. I put two guitar parts where
needed, otherwise I just intertwined them to one. The tuning is from low
to high: C#-G#-C#-F#-F#-C#


INTRO:
Guitar 1
C#-------0----0----0----0----0---0---0---0---0---
F#-------0----0----0----0----0---0---0---0---0---
F#-------0----0----0----0----0---0---0---0---0---
C#-------0----0----0----0----0---0---0---0---0---
G#-----------------------------------------------
C#---0---12---12---11---12---5---7---8---7---8---

Guitar 2
C#----------5----0----0----0----0----0----0---5--
F#----------0----0----0----0----0----0----0---0--
F#----------0----0----0----0----0----0----0---0--
C#----------0----0----0----0----0----0----0---0--
G#-----------------------------------------------
C#---0-------------------------------------------

Guiatr 1 
C#-------0----0----0----0----0---0---0---
F#-------0----0----0----0----0---0---0---
F#-------0----0----0----0----0---0---0---
C#-------0----0----0----0----0---0---0---
G#---------------------------------------
C#---0---12---12---11---12---5---7---8---

Guitar 2 
C#----------5----0----0----0----0---5--
F#----------0----0----0----0----0---0--
F#----------0----0----0----0----0---0--
C#----------0----0----0----0----0---0--
G#-------------------------------------
C#---0---------------------------------

FIRST VERSE: (play 2x)
C#----------------------------0----------0-----------0--
F#-------------------------2----------------------0-----
F#-----------3---------2-----------2-----------2--------
C#-------0----------------------------------------------
G#------------------------------------------------------
C#---5--------------------------------------------------

C#-----------0----------------------------------0-----------
F#-------3-------------------15--------15------------15-----
F#---3--------------0-----------------------0------------0--
C#----------------------12--------13------------------------
G#----------------------------------------------------------
C#----------------------------------------------------------

C#-----------------0-----------------8---------------------1-
F#--------15-----------------------------0----0--------0-----
F#-------------0----------------9-------------------2--------
C#---12---------------12---11--------------------------------
G#-----------------------------------------------------------
C#-----------------------------------------------------------


PRE-CHORUS:
C#----------------0-----------0-------------0----------0--
F#----------------------0----------------0-------0--------
F#-----------0-------------0------------------------0-----
C#-------3---------------------------3--------------------
G#---6----------------------------5-----------------------
C#--------------------------------------------------------
   "And I              could be                the one..."

C#----------------0-----------0---------------0----
F#----------------------0---------------------0----
F#-----------0-------------0--------------0--------
C#-------3----------------------------7------------
G#---6-----------------------------8---------------
C#-------------------------------------------------


CHORUS: 
(These are the chords, you can figure the rhythm)
C#----0-----------------0----------------0--------------0--
F#----0-----------------0----------------0--------------0--
F#----3-----------------5----------------7--------------8--
C#----0-----------------0----------------0--------------0--
G#----0-----------------0----------------0--------------0--
C#----5-----------------7----------------9--------------10-
   "I could break   into a..."
(Play this 2x)

Play "Intro" part before second verse.

SECOND VERSE:
Play First verse up until Pre-chorus

B Section:  LJ & Clint harmonize together
(You can strum and let ring or do a light rhythm)
C#---0-----------------0----------------0---------------0--
F#---0-----------------0----------------0---------------3--
F#---3-----------------2----------------2---------------3--
C#---0-----------------0----------------0---------------0--
G#---0-----------------0----------------0---------------1--
C#---5-----------------4----------------3---------------x--
   "And I          could be       the one..."

C#----------------0----------------------------0--------
F#--------15----------15---------------15---------------
F#-------------0-------------0-------------0------------
C#---13---------------------------12----------------12--
G#------------------------------------------------------
C#------------------------------------------------------
   "But it's too                far gone..."

C#-------------8------------------------1----
F#-------------------0----0---------0--------
F#--------9---------------------2------------
C#---11--------------------------------------
G#-------------------------------------------
C#-------------------------------------------
  ...and this love            must die."

PRE-CHORUS: play the one after first verse

SECOND CHORUS: play as many times as needed

BRIDGE:
Guiatr 1 (solo) w/ wah
C#-------------------------------------------
F#-------------------------------------------
F#-----0--2--3--5--3--7--3--5--0--5--2--0--2-
C#--0----------------------------------------
G#-------------------------------------------
C#-------------------------------------------

C#-------------------------------------------
F#-------------------------------------------
F#-----0--2--3--5--3--7--3--5--3--7--3--7--5-
C#--0----------------------------------------
G#-------------------------------------------
C#-------------------------------------------

C#------5-7-5------4--5--5--7--8-----8-10-8-----7--8--7--5-
F#---------------------------------------------------------
F#---0----------0-----------------0----------0-------------
C#---------------------------------------------------------
G#---------------------------------------------------------
C#---------------------------------------------------------

C#---7-----5-7-5------4--5--5--7--7--8--8--10--10--8--10--10-
F#-----------------------------------------------------------
F#------0----------0-----------------------------------------
C#-----------------------------------------------------------
G#-----------------------------------------------------------
C#-----------------------------------------------------------

Guitar 2: Plays "Intro" section under solo.

THIRD CHORUS: Play as needed.

OUTRO:
C#-----------0---------0---------0-------0----------0------
F#-----3---------3---------2---------2-------2----------2--
F#--0-----0---------0---------0-----------------0----------
C#---------------------------------------------------------
G#---------------------------------------------------------
C#---------------------------------------------------------

C#----------0-----
F#----------------
F#------1---------
C#--2-------------
G#----------------
C#----------------

Enjoy.
Добавлено: 18.07.2012
Другие материалы по этой песне:

Страница создана 16.05.2012
http://primanota.ru/sevendust/x-mas-day-chords.htm
Привет, Гость.
Предлагаем пройти революционный курс по гитаре.
Подарок от PrimaNota.Ru, забирай!